» » »

Speed Dial Tabs (ver.1)

Artists:  A B C D E F G H I J K L M N O P Q R S T U V W X Y Z # 

Speed Dial Tabs (ver.1)

Mitchel Musso
Rating:
5/5 (2 votes)

Hard to play? Try these video lessons and learn fast.
                ----------------------------------------------------------------------------
----------------------------------------------------------------------------




Tuning:Drop D

Tuning is Drop D this wont work in standard


PM - means plam mute
x - means mute that string


Intro - Piano Bass notes played on a guitar
e|-------------|
B|-------------|
G|-------------|
D|-------------| Repeat once more till singing
A|-8~-6~-4~----|
D|----------6~-|



Verse - Piano Bass notes played on a guitar
e|-------------|
B|-------------|
G|-------------|
D|-------------| Repeat 2 more times
A|-8~-6~-4~----|
D|----------6~-|



Pre Chorus Version 1- Piano Bass notes played on a guitar
e|----------|
B|----------|
G|----------|
D|----------| Repeat once more
A|-------6~-|
D|-3~-6~----|



Chorus - Palm mute every note in JUST this CHORUS
e|-------------------------------------|
B|-------------------------------------|
G|-------------------33333333-66666666-|
D|-66666666-11111111-33333333-66666666-| Repeat 2 more times
A|-66666666-11111111-11111111-44444444-|
D|-66666666-11111111-------------------|
PM ******** ******** ******** ********

Then play this

e|----------------------|
B|----------------------|
G|----------------------|
D|-33333333-11111111-6~-|
A|-33333333-11111111-6~-|
D|-33333333-11111111-6~-|
PM ******** ********


Verse 2- Guitar palm muted
e|-----------------------------------|
B|-----------------------------9--99-|
G|-------------------66666666--x--xx-|
D|-33333333-11111111-66666666-x6-x66-|
A|-33333333-11111111-44444444--------|
D|-33333333-11111111-----------------|
PM ******** ******** ******** *  *


Pre Chorus Version 2 - Guitar Palm muted
e|----------------------------|
B|----------------------------|
G|-------------------88888888-|
D|-33333333-66666666-88888888-| Repeat once more
A|-33333333-66666666-66666666-|
D|-33333333-66666666----------|
PM  ** * **  ** * **  ** * **



Chorus
e|-------------------------------------|
B|-------------------------------------|
G|-------------------33333333-66666666-|
D|-66666666-11111111-33333333-66666666-| Repeat 2 more times
A|-66666666-11111111-11111111-44444444-|
D|-66666666-11111111-------------------|

Then play this

e|----------------------------------|
B|----------------------------------|
G|----------------------------------|
D|-33333333-11111111-66666666666666-|
A|-33333333-11111111-66666666666666-|
D|-33333333-11111111-66666666666666-|
PM  ** ** *  ** ** *  *************
                    (Slowly release PM)



Bridge
e|-------------------------------------------------------|
B|-------------------------------------------------------|
G|-----------------------------------3333333333333333----|
D|-1111111111111111-3333333333333333-3333333333333333-1~-|
A|-1111111111111111-3333333333333333-1111111111111111-1~-|
D|-1111111111111111-3333333333333333------------------1~-|



Break with no guitar.



Chorus
e|-------------------------------------|
B|-------------------------------------|
G|-------------------33333333-66666666-|
D|-66666666-11111111-33333333-66666666-| Repeat like 6 times
A|-66666666-11111111-11111111-44444444-|
D|-66666666-11111111-------------------|




Outro
e|-----------|
B|-----------|
G|----8~-13~-|
D|-3~-x--xx--| 
A|-x--6~-11~-|
E|-3~--------|
            
Hard to play? Try these video lessons and learn fast. | Correct




comments powered by Disqus
↑ Back to top | Tablatures and chords are parodies/interpretations of the original songs. You may use it for private study, scholarship, research or language learning purposes only