» » »

Misty Edwards, I Will Waste My Life Tabs (ver.1)

Artists:  A B C D E F G H I J K L M N O P Q R S T U V W X Y Z # 

I Will Waste My Life Tabs (ver.1)

Misty Edwards Tabs
Rating:
0/5 (0 votes)
I Will Waste My Life lessons Tabs too difficult? Try these video lessons and learn fast
                
Tuning:Eb
Intro
e|-----------------------------------------------------------|
B|-----------------------------------------------------------|
G|------0--------2---------2-0-------------------------------|
D|--------2---0----0----0------0---4-------------------------|
A|----2------------------------------------------------------|
E|--0-------2--------3-----------3---2-----------------------|

Solo
e|-----------------------------------------------10-10-10--10|
B|----10---10h12p10------12-10---------10h12p10--------------|
G|-12---12----------12----------12--12-----------------------|
D|-----------------------------------------------------------|
A|-----------------------------------------------------------|
E|-----------------------------------------------------------|

e|----10-10h12---10------------10----------------------------|
B|-12--------------12-10-10h12----12----/12---10-------------|
G|------------------------------------------------12---------|
D|-----------------------------------------------------------|
A|-----------------------------------------------------------|
E|-----------------------------------------------------------|

e|-----------------------------------------------------------|
B|----10-12-10~----------------------------------------------|
G|-12------------12\-----------------------------------------|
D|-----------------------------------------------------------|
A|-----------------------------------------------------------|
E|-----------------------------------------------------------|

The song is a Eb - F/C# - F# walk up. Easy

| /  slide up
| \  slide down
| h  hammer-on
| p  pull-off
| ~  vibrato


Questions, comments, or requests are welcome
            

comments powered by Disqus
↑ Back to top | Misty Edwards Tabs for I Will Waste My Life. Lyrics for acoustic guitar and electric guitar. Tablatures and chords are parodies/interpretations of the original songs. You may use it for private study, scholarship, research or language learning purposes only