» » »

Stuff And Nonsense Tabs (ver.1)

Artists:  A B C D E F G H I J K L M N O P Q R S T U V W X Y Z # 

Stuff And Nonsense Tabs (ver.1)

Missy Higgins
Rating:
0/5 (0 votes)

Hard to play? Try these video lessons and learn fast.
                (Intro)
Intro from Jessica Coulombe's Cover of Missy Higgins' Cover of 
  Stuff and Nonsense by Split Enz
Guitar by Peter Steele

I love the guitar work on Missy Higgin's cover, but it sounds like there are
two guitars being played at once, even in the intro. I found Jessica 

The intro is simplified, but is still very beautiful, and most importantly 
can be played on one guitar. I'm a beginner on the guitar; this is my first 
tab. I want to transcribe the rest of the song, but it seems too hard for me 
to do. I'll give it a try, but I wanted to get this out first because it's 
so great to play.

Standard Tuning, Capo 4

E-3-------3-------|-2-------2-----|-0-------0---|-----------------|
B---0-------------|---0-----------|-----0-------|-0---------0-----|
G-----0-------0---|-----0-------0-|---0---------|---0---0-------0-|
D-----------------|---------------|---2-------2-|-----2-------2---|
A-----------2-----|-----------2---|-3-----3-----|-3-------3-------|
E-3-----3---------|-3-----3-------|-------------|-----------------|


E-----------3-----|-2-------2-----|-0-----------|-----------------|
B-----------------|---0-----------|---------0---|-1h3-------0-----|
G-------0-------0-|-----0-------0-|-----0-------|-----------------|
D-----0-----------|---------------|---2-------2-|-----2-------2---|
A---2---------2---|-----------2---|-3-----3-----|-3-------3-------|
E-3-------3-------|-3-----3-------|-------------|-----------------|
            
Hard to play? Try these video lessons and learn fast. | Correct




comments powered by Disqus
↑ Back to top | Tablatures and chords are parodies/interpretations of the original songs. You may use it for private study, scholarship, research or language learning purposes only