» » »

Steer Chords (ver.2)

Artists:  A B C D E F G H I J K L M N O P Q R S T U V W X Y Z # 

Steer Chords (ver.2)

Missy Higgins
Rating:
3/5 (2 votes)

Tabs too difficult? Try these video lessons and learn fast.
                previous tab is correct. Just thought I'd tab it out w/capo for the lazy ppl :D

Missy Higgins
Steer
off the new album "On a Clear Night"

Standard tuning EADGBe, capo 2

Intro

e----0----0----0---0-0---|
B----3----2----3---3-3---|
G----2----2----0---0h2---|
D----0----0----0---0h2---|
A--------------x---x-0---|
E--------------3---3-----|


Verse

e----0--------0-----------0--------0-0---|
B----3--------2-----------3--------3-3---|
G----2--------2-----------0--------0h2---|
D----0--------0-----------0--------0h2---|
A-------------------------x--------x-0---|
E-------------------------3--------3-----|
     Feel...  falling...  clothing...   (etc.)

Pre-chorus

e----0-----------0-----------0-----------|
B----2-----------2-----------3-----------|
G----2-----------2-----------0-----------|
D----2-----------2-----------0-----------|
A----0-----------0-----------x-----------|
E----------------------------3-----------|
        It....   simple....      No hidden....

e----0-----------0--------------0-----------|
B----3-----------3--------------3-----------|
G----2-----------2--------------0-----------|
D----2-----------0--------------0-----------|
A----0-----------x--------------x-----------|
E----------------2--------------3-----------|
  ...pullin...   puppeteers...    had enough....

Chorus

e--------0-----------0----------0---|
B--------3-----------2----------3---|
G--------2-----------2----------0---|
D--------0-----------0----------0---|
A-------------------------------x---|
E-------------------------------3---|
 But the search ends here...    night....(etc.)

Verse 2

Bridge

e----0----------------------------------0-----------|
B----2--------------------3-------------3-----------|
G----2--------------------4-------------0-----------|
D----2--------------------4-------------0-----------|
A----0--------------------2-------------x-----------|
E---------------------------------------3-----------|
            Cos you've... listening for answers (etc.)

yeah so u get the idea :)

just thought I'd also make a few corrections to the lyrics -

(Verse 1)
Feel it falling off like clothing
Taste it rolling on your tongue
See the lights above you glowing
Oh and breathe them deep into your lungs

(Prechorus)
It was always simple
No hidden heart
You've been pulling at the strings
Playing puppeteer for kings
And you've had enough

(Chorus)
But the search ends here
Where the night is totally clear
And your heart is fierce
So now you finally know
That you control where you go..you can steer

(Verse 2)
So hold this feeling like a newborn
Oh with freedom surging through your veins
You have opened up a new door
So bring on the wind, fire and rain

(Prechorus 2)
It was always simple
No hidden heart
You've been playing at a game
Called remembering Your name
And you've stuffed it up

((CHORUS))

Ohh..
And now you finally know
That you control where you go..you can Steer

(Bridge)
Cause you've been searching for the answers
Oh but the city screams
And all your dreams go unheard

((CHORUS))

Ohh..
Get out of the box
And step into the clear

Ohh..
So now you finally know you can.. steer
            
Tabs too difficult? Try these video lessons and learn fast.




comments powered by Disqus
↑ Back to top | Tablatures and chords are parodies/interpretations of the original songs. You may use it for private study, scholarship, research or language learning purposes only