>
 >
Steer

Steer Guitar Tabs

Missy Higgins - Steer chords, tabs, tablatures, lyrics

Guitar lessons | Add/correct | Request | Top 50 tabs Artists:  A B C D E F G H I J K L M N O P Q R S T U V W X Y Z 0-9

Steer Guitar Tabs – Missy Higgins

CD, Sheet music, Poster

Do you like Steer? Share with your friends now
ChordsChords v2Chords v3Chords v4Chords v5Chords v6Chords v7TabsTabs v2Ukulele
-------------------------------------------------------------------------------
-------------------------------------------------------------------------------

Tuning:normal.

NB:this song is played with power chords.


E, E7, A >[slide]> B


    E        E7         A [slide] B
e|--0---------0---------0---->----0-----------------------------------------|
B|--0---------0---------0---->----0-----------------------------------------|
G|--9---------8---------6---->----7-----------------------------------------|
D|--9---------9---------7---->----9-----------------------------------------|
A|--7---------7---------7---->----9-----------------------------------------|
E|--x---------x---------x---->----x-----------------------------------------|

*E      *E7               A         >B
feel it falling off like clothing
*E        *E7             A        >B
taste it rolling on your tounge
*E      *E7               A        >B
see the lights above you glowing
       *E           *E7             A
oh and breathe them deep into your lungs



     B       A       B       G#m       A[slide]B
e|---0-------0-------0--------0--------0--->---0----------------------------|
B|---0-------0-------0--------0--------0--->---0----------------------------|
G|---8-------6-------8--------5--------6--->---8----------------------------|
D|---9-------7-------9--------6--------7--->---9----------------------------|
A|---9-------7-------9--------6--------7--->---9----------------------------|
E|---x-------x-------x--------4--------x--->---x----------------------------|

B                    A
it was always simple, not hidden hard
            B
you've been pulling at the strings
        G#m
playing puppeteer for kings
     A                 >B
and you've had enough


   E       B       A[slide]B
e|-0-------0-------0-------0------------------------------------------------|
B|-0-------0-------0-------0------------------------------------------------|
G|-1-------8-------6-------8------------------------------------------------|
D|-2-------9-------7-------9------------------------------------------------|
A|-2-------9-------7-------9------------------------------------------------|
E|-0-------x-------x-------x------------------------------------------------|


         E          B
but the search ends here
          A                       >B
where the night is totally clear
         E          B
and your heart is fierce
           A                      A 
so now you finally know that you control where you go
    *E
you can steer.



so hold this feeling like a newborn
of freedom surging through your veins
you have opened up a new door
so bring on the wind, fire and rain


it was always simple, not hidden hard
you've been playing at a game
called remembering you name
and you stuffed it up


but the search ends here
where the night is totally clear
and your heart is fierce
                                  A
so now you finally know that you control where you go
    *B    *C#m  *A
you can steer.




*[pluck these chords]
  *B     *C#m    *A
e|-7-------4------5---------------------------------------------------------|
B|-7-------5------5---------------------------------------------------------|
G|-8-------6------6---------------------------------------------------------|
D|-9-------6------7---------------------------------------------------------|
A|-9-------4------7---------------------------------------------------------|
E|-7-------4------5---------------------------------------------------------|

*B                 *C#m          *A         *A
  'cos you've been listening for answers
          *B               *C#m                *A      *A
   but the city screams and all your dreams go unheard


    E        E7
e|--0---------0---|
B|--0---------0---|
G|--9---------8---|
D|--9---------9---|
A|--7---------7---|
E|--x---------x---|




         E          B
but the search ends here
          A                      >B
where the night is totally clear
         E          B
and your heart is fierce
           A                                      >B
so now you finally know that you control where you go
         E            B
you can steer
         A                                 >B             E    B
yeah get out of the box and step into the clear
              A                     *E
'cos now you finally know you can steer


   *E        *E7        A [slide] B
e|--0---------0---------0---->----0-----------------------------------------|
B|--0---------0---------0---->----0-----------------------------------------|
G|--9---------8---------6---->----7-----------------------------------------|
D|--9---------9---------7---->----9-----------------------------------------|
A|--7---------7---------7---->----9-----------------------------------------|
E|--x---------x---------x---->----x-----------------------------------------|





Comments


Popular Missy Higgins tabs & chords
All For Believing 1 Chords
Everyones Waiting 2 Chords
Link In A Chain Chords
Stuff Nonsense Chords
Sweet Arms Of A Tune 1 Chords
Ten Days Chords
Drop The Mirror Ukulele
Feel Like Going Back Home Ukulele
Set Me On Fire Ukulele
Steer Ukulele


Song lyrics



↑ Back to top | Tablatures and chords are parodies/interpretations of the original songs. You may use it for private study, scholarship, research or language learning purposes only
© 2014 AZChords.com Contact us | Privacy policy | DMCA | Add/correct tabs | Request tabs | Top 50 tabs