» » »

Missy Higgins, Greed For Your Love Tabs (ver.1)

Artists:  A B C D E F G H I J K L M N O P Q R S T U V W X Y Z # 

Greed For Your Love Tabs (ver.1)

Missy Higgins Tabs
 Rating:
3.8/5 (5 votes)
Greed For Your Love lessons Tabs too difficult? Try these video lessons and learn fast
                

Notes: I'm not the best at finger picking (playing
or transcribing), but the below should give you a 
general idea on how to play the song.


VERSES:
    Em
E-|---------0----3-2-0h2h3-----------0----3--3/5--2~-|-
B-|-------0------------------------0-----------------|-
G-|-----0-----0------------------0------0------------|-
D-|-0h2----------------------0h2---------------------|-
A-|--------------------------------------------------|-
E-|--------------------------------------------------|-

1ST PRE CHORUS:
    Am
E-|------------------------------------------------|-
B-|-------1-------3------1-------0h1---------1/3-1-|-
G-|---2------2-------2-----2-----2----2------------|-
D-|-2---2------2-------2-----2---2------2----------|-
A-|-0----------------------------------------------|-
E-|------------------------------------------------|-

2ND PRE CHORUS CHORDS:
    Am    C
E-|-0-----0----|-
B-|-1-----1----|-
G-|-2-----0----|-
D-|-2-----2----|-(play twice each time)
A-|-0-----3----|-
E-|------------|-

CHORUS CHORDS:
    Em   D   Am         (Am part can be played like this)
E-|----------0---|-     -0---0---0---0-
B-|-0----3---1---|-     -1---3---1---0-
G-|-0----2---2---|-     -2---2---2---2-
D-|-2----0---2---|-     -2---2---2---2-
A-|-2--------0---|-     -0---0---0---0-
E-|-0------------|-     ---------------

BRIDGE CHORDS:
    C    D   Em
E-|-0------------|-
B-|-1----3---0---|-
G-|-0----2---0---|-
D-|-2----0---2---|-
A-|-3--------2---|-
E-|----------0---|-
            
Submit corrections

comments powered by Disqus
↑ Back to top | Missy Higgins Tabs for Greed For Your Love. Lyrics for acoustic guitar and electric guitar. Tablatures and chords are parodies/interpretations of the original songs. You may use it for private study, scholarship, research or language learning purposes only