>
 >
We Have Fallen

We Have Fallen Guitar Tabs

Miss May I - We Have Fallen chords, tabs, tablatures, lyrics

Guitar lessons | Add/correct | Request | Top 50 tabs Artists:  A B C D E F G H I J K L M N O P Q R S T U V W X Y Z 0-9

We Have Fallen Guitar Tabs – Miss May I

CD, Sheet music, Poster

Do you like We Have Fallen? Share with your friends now
Tabs
[We Have Fallen]
[Monument]
[Miss May I]

Tuning: Drop C (CGCFAD/Drop D 1 Step Down}

[Riff 1a] - [00:02] - [00:20--------| - [8x]
- ----------------------------------|
- ----------------------------------|
- ----------------------------------|
- ----------------------------------|
- -----5p4-5/8-----5p4-5/8----------|
- -0-0---------0-0---------0-0-0-0--|
PM ...         ...         .......

[Riff 1b] - [00:16] - [00:20----------| - [2x]
- ------------------------------------|
- ------------------------------------|
- ------------------------------------|
- ------------------------------------|
- -----8p7-8/12-----8p7-7/12----------|
- -0-0----------0-0----------0-0-0-0--|
PM ...          ...          .......


[Riff 2] - [00:20] - [00:38-----------------------------------------| - [2x]
- ------------------------------------------------------------------|
- ------------------------------------------------------------------|
- ------------------------------------------------------------------|
- ------------------------------------------------------------------|
- -----5---4-----5---4-----8p7-4h5-----5---4-----5---4-----8p7-4h5--|
- -0-0---0---0-0---0---0-0---------0-0---0---0-0---0---0-0----------|
PM ...   .   ...   .   ...         ...   .   ...   .   ...

- -----------------------------------------------------------------|
- -----------------------------------------------------------------|
- -----------------------------------------------------------------|
- -----------------------------------------------5---5-----7---7---|
- -----5---5-----7---7-----7---7-------8---8-----------------------|
- -8-8---8---8-8---8---8-8---8-----8-8---8---8-8---8---8-8---8-----|
PM ...   .   ...   .   ...   .     ...   .   ...   .   ...   .


[Riff 3a] - [00:38] - [00:57--------| - [2x]
- ----------------------------------|
- ----------------------------------|
- ----------------------------------|
- ----------------------------------|
- -----8---8-----8---8-----8---8p0--|
- -0-0---0-----0---0---0-0---0------|
PM ...   .     .   .   ...   .

- ---------------------------------|
- ---------------------------------|
- ---------------------------------|
- ---------------------------------|
- -----8---8-----8---8-----8---8---|
- -7-7---7-----7---7---7-7---7-----|
PM ...   .     .   .   ...   .

- ---------------------------------------|
- ---------------------------------------|
- ---------------------------------------|
- ---------------------------------------|
- -----10---10----10---10-----10---10/12-|
- -8-8----8-----8----8----8-8----8-------|
PM ...    .     .    .    ...    .

- ----------------------------------------|
- ----------------------------------------|
- ----------------------------------------|
- ----------------------------------------|
- -------12----12-----10---10-----8---8---|
- -10-10----10-----10----8----8-8---8-----|
PM .....    ..     ..    .    ...   .

[Riff 3b] - [00:38] - [00:57--------| - [2x]
- ----------------------------------|
- ----------------------------------|
- ----------------------------------|
- -----7---7-----7---7-----7---7\5--|
- ----------------------------------|
- -0-0---0-----0---0---0-0---0------|
PM ...   .     .   .   ...   .

- ---------------------------------|
- ---------------------------------|
- ---------------------------------|
- -----7---7-----7---7-----7---7---|
- ---------------------------------|
- -7-7---7-----7---7---7-7---7-----|
PM ...   .     .   .   ...   .

- ----------------------------------|
- ----------------------------------|
- ----------------------------------|
- -----8---8-----8---8-----8---8/10-|
- ----------------------------------|
- -8-8---8-----8---8---8-8---8------|
PM ...   .     .   .   ...   .

- ---------------------------------------|
- ---------------------------------------|
- ---------------------------------------|
- -------10----10-----8---8--------------|
- ------------------------------12---12--|
- -10-10----10-----10---8---8-8----8-----|
PM .....    ..     ..   .   ...    .


[Riff 4a] - [00:57] - [01:15----------------------------------------| - [2x]
- ------------------------------------------------------------------|
- ------------------------------------------------------------------|
- ------------------------------------------------------------------|
- ------------------------------------------------------------------|
- ---------8-----------8---------------8---------------10-----------|
- -0---------------0-------0---7-----------0---8-----------0---8----|

- -----------------------------------------------------------------|
- -----------------------------------------------------------------|
- -----------------------------------------------------------------|
- -----------------------------------------------------------------|
- ---------12----------12--------------10--------------------------|
- -/10-------------10------0---8-----------0---7-------7/8-7---5---|

[Riff 4b] - [00:57] - [01:15----------------------------------------| - [2x]
- ------------------------------------------------------------------|
- ------------------------------------------------------------------|
- ------------------------------------------------------------------|
- ---------7-----------7---------------7---------------8------------|
- ------------------------------------------------------------------|
- -0---------------0-------0---7-----------0---8-----------0---8----|

- -----------------------------------------------------------------|
- -----------------------------------------------------------------|
- -----------------------------------------------------------------|
- ---------10----------10--------------8---------------------------|
- -----------------------------------------------------------------|
- -/10-------------10------0---8-----------0---7-------7/8-7---5---|


[Riff 3a + 3b] - [01:15] - [01:33] - [2x]

[Riff 5] - [01:15] - [01:33]
- -----------------------------------------------------------------|
- ---6p5---------6---6p5---------6---6p5---------6---6p5---------6-|
- ---------5h7-------------5h7-------------5h7-------------5h7-----|
- -7-----0-----7---0-----0-----7---0-----0-----7---0-----0-----7---|
- -----------------------------------------------------------------|
- -----------------------------------------------------------------|
PM       .         .     .         .     .         .     .

- -----------------------------------------------------------------|
- ---6p5---------6---6p5---------6---6p5---------6---6p5-----------|
- ---------5h7-------------5h7-------------5h7-------------5h7-----|
- -0-----0-----7---0-----0-----7---0-----0-----7---0-----0-----7---|
- -----------------------------------------------------------------|
- -----------------------------------------------------------------|
PM .     .         .     .         .     .         .     .

- ------------------------------------------------------------------|
- ---10p8--------10--10p8--------10--10p8--------10--10p8--------10-|
- -7-------9h10p7----------9h10p7----------9h10p7----------9h10p7---|
- -------0---------0-----0---------0-----0---------0-----0----------|
- ------------------------------------------------------------------|
- ------------------------------------------------------------------|
PM       .         .     .         .     .         .     .

- ------------------------------------------------------------------|
- ---10p8--------10--10p8--------10--10p8--------10--10p8-----------|
- ---------9h10p7----------9h10p7----------9h10p7----------9h10p7---|
- -0-----0---------0-----0---------0-----0---------0-----0----------|
- ------------------------------------------------------------------|
- ------------------------------------------------------------------|
PM .     .         .     .         .     .         .     .

listen carefully for this its quite, in my speakers anyway.
n i think its only on the right side lol


[Riff 6] - [01:33] - [01:36]
- -----------------|
- -----------------|
- -----------------|
- -0~--------------|
- -0~--------------|
- -0~----------12\-|


[Riff 7, Guitar 1 & 2] - [01:36] - [01:52-------------------| - [2x]
- ----------------------------------------------------------|
- ----------------------------------------------------------|
- ----------------------------------------------------------|
- ----------------------------------------------------------|
- -6-----------------------6--------------------------------|
- ---0-0-0---0-0-0-0---------0-0-0---0-0-0-8-8-8-8-5-5-5-5--|
-
- ---------------------------------------------------------|
- ---------------------------------------------------------|
- ---------------------------------------------------------|
- ---------------------------------------------------------|
- -6-----------------------6-------------------------------|
- ---0-0-0---0-0-0-0---------0-0-0---0-0-0-8-8-8-8-5-5-5-5-|


- ---------------------------------------------------------|
- ---------------------------------------------------------|
- ---------------------------------------------------------|
- ---------------------------------------------------------|
- -6-----------------------6-------------------------------|
- ---0-0-0---0-0-0-0---------0-0-0---0-0-0-8-8-8-8-4-4-4-4-|
-
- ---------------------------------------------------------|
- ---------------------------------------------------------|
- ---------------------------------------------------------|
- ---------------------------------------------------------|
- -6-----------------------6-------------------------------|
- ---0-0-0---0-0-0-0---------0-0-0---0-0-0-5-5-5-5-1-1-1-1-|


[Riff 8] - [01:52] - [02:10]
- -----------------------------------------------------------------|
- -----------------------------------------------------------------|
- -----------------------------------------------------------------|
- -----------------------------------------------------------------|
- -0-0-0-0---0---0-0-------0-0-0-0---0---0-0-------0-0-0-0-0---0-0-|
- -1-1-1-1---1---1-1-------1-1-1-1---1---1-1-------1-1-1-1-1---1-1-|
PM ...............................................................

- -----------------------------------------------------------------|
- -----------------------------------------------------------------|
- -----------------------------------------------------------------|
- -----------------------------------------------------------------|
- -0-0-0-0---0---0-0-------0-0-0-0---0---0-0-------00000---00000---|
- -1-1-1-1---1---1-1-------1-1-1-1---1---1-1-------11111---11111---|
PM .............................................................

- -----------------------------------------------------------------|
- -----------------------------------------------------------------|
- -----------------------------------------------------------------|
- -----------------------------------------------------------------|
- -0-0-0-0---0---0-0-------0-0-0-0---0---0-0-------0---0-0-0---0-0-|
- -1-1-1-1---1---1-1-------1-1-1-1---1---1-1-------1---1-1-1---1-1-|
PM ...............................................................

- -----------------------------------------------------------------|
- -----------------------------------------------------------------|
- -----------------------------------------------------------------|
- -----------------------------------------------------------------|
- -0-0-0-0---0---0-0-------0-0-0-0---0---0-0-------11111---11111---|
- -1-1-1-1---1---1-1-------1-1-1-1---1---1-1-------11111---11111---|
PM .............................................................


[Riff 9, Guitar 1 & 2] - [02:10] - [02:19---------------------------| - [2x]
- ------------------------------------------------------------------|
- ------------------------------------------------------------------|
- ------------------------------------------------------------------|
- ------------------------------------------------------------------|
- -0-0-0-0---0---0-0-------0-0-0-0---0---0-0-0-0-0-0-0-0-0-0-0-0-0--|
- -0-0-0-0---0---0-0-------0-0-0-0---0---0-0-0-0-0-0-0-0-0-0-0-0-0--|
PM ...............................................................
-
- -----------------------------------------------------------------|
- -----------------------------------------------------------------|
- -----------------------------------------------------------------|
- -----------------------------------------------------------------|
- -0-0-0-0---0---0-0-------0-0-0-0---0---0-0-------0-0-0-0-0-0-0-0-|
- -0-0-0-0---0---0-0-------0-0-0-0---0---0-0-------0-0-0-0-0-0-0-0-|
PM ...............................................................


[Riff 2] - [02:19] - [02:37] - [2x]

[Riff 10] - [02:37] - [03:05] - [12-|x]
- ----------------------------------|
- ----------------------------------|
- ----------------------------------|
- -0-----------------4-----3---1----|
- ----------------------------------|
- ---0-0-0-0-0-1/3-0---2-2---1---0--|
PM   .....   .     .   ...   .   .

[Riff 11] - [02:46] - [03:05----------------------------------------| - [2x]
- ------------------------------------------------------------------|
- ------------------------------------------------------------------|
- ------------------------------------------------------------------|
- ------------------------------------------------------------------|
- -000-----------------00000-0-0-0-000------------------------------|
- -000-----------------00000-0-0-0-000------------------------------|
PM ...................................

guitars switch between playing riff 10 and 11


[Riff 3a] - [03:05] - [03:23] - [2x]

[Riff 12] - [03:05] - [03:23]
- ------------------------------------------------------------------|
- ------------------------------------------------------------------|
- -5-7-7-7-7-7-7-7-7-7-7-7-9-9-9-9-10101010101010101212121214141414-|
- -x-x-x-x-x-x-x-x-x-x-x-x-x-x-x-x-x-x-x-x-x-x-x-x-x-x-x-x-x-x-x-x--|
- -3-5-5-5-5-5-5-5-5-5-5-5-7-7-7-7-8-8-8-8-8-8-8-8-1010101012121212-|
- ------------------------------------------------------------------|

- ------------------------------------------------------------------|
- ------------------------------------------------------------------|
- -1515151515151515151515151515151512121212121212121515151514141414-|
- -x-x-x-x-x-x-x-x-x-x-x-x-x-x-x-x-x-x-x-x-x-x-x-x-x-x-x-x-x-x-x-x--|
- -1313131313131313131313131313131310101010101010101313131312121212-|
- ------------------------------------------------------------------|

- ------------------------------------------------------------------|
- ------------------------------------------------------------------|
- -1214141414141414141414141414141415151515151515151515151515151517-|
- -x-x-x-x-x-x-x-x-x-x-x-x-x-x-x-x-x-x-x-x-x-x-x-x-x-x-x-x-x-x-x-x--|
- -1012121212121212121212121212121213131313131313131313131313131315-|
- ------------------------------------------------------------------|

- ------------------------------------------------------------------|
- ------------------------------------------------------------------|
- -1717171717171717171717171717171212121212121212121515151514141414-|
- -x-x-x-x-x-x-x-x-x-x-x-x-x-x-x-x-x-x-x-x-x-x-x-x-x-x-x-x-x-x-x-x--|
- -1515151515151515151515151515151010101010101010101313131312121212-|
- ------------------------------------------------------------------|


[Riff 4a + 4b] - [03:23] - [03:32]

[Riff 13a] - [03:32] - [03:41]
- -----------------------------------------------------------------|
- -----------------------------------------------------------------|
- -----------------------------------------------------------------|
- ---------[7b]----------------------------------------------------|
- ---------------------8---------------8-------[5br]---10----------|
- -0---------------0-------0---7-----------0---------------0---8---|

- -----------------------------------------------------------------|
- -----------------------------------------------------------------|
- -----------------------------------------------------------------|
- -----------------------------------------------------------------|
- ---------12----------12------[5br]---10--------------------------|
- -/10-------------10------0---------------0---7-------7/8-7---5---|

[Riff 13b] - [
- -----------------------------------------------------------------|
- -----------------------------------------------------------------|
- -----------------------------------------------------------------|
- ---------[7b]--------7---------------7---------------8-----------|
- ---------------------------------------------[5br]---------------|
- -0---------------0-------0---7-----------0---------------0---8---|

- -----------------------------------------------------------------|
- -----------------------------------------------------------------|
- -----------------------------------------------------------------|
- ---------10----------10--------------8---------------------------|
- -----------------------------[5br]-------------------------------|
- -/10-------------10------0---------------0---7-------7/8-7---5---|


[Riff 3a + 3b] - [03:41] - [04:19-| - [4x]
[Riff 5] - [03:41] - [04:19-------| - [2x]


[Symbols]

PM... Palm Mute notes with (...) under them
/     Slide Up
\     Slide Down
h     Hammer On
p     Pull Off
x     Dead Note
b     Bend
r     Release bend
~     Let Ring

:)





Comments


Popular Miss May I tabs & chords
Relentless Chaos 2 Bass Tabs
Architect Tabs
Colossal Tabs
Day By Day 1 Tabs
Forgive And Forget 1 Tabs
Forgive And Forget 2 Tabs
Monument Tabs
Relentless Chaos 3 Tabs
Swing Tabs
In Recognition Ukulele


Song lyrics



↑ Back to top | Tablatures and chords are parodies/interpretations of the original songs. You may use it for private study, scholarship, research or language learning purposes only
© 2014 AZChords.com Contact us | Privacy policy | DMCA | Add/correct tabs | Request tabs | Top 50 tabs