>
 >
Unfortunate Engagement

Unfortunate Engagement Guitar Tabs

Miss May I - Unfortunate Engagement chords, tabs, tablatures, lyrics

Guitar lessons | Add/correct | Request | Top 50 tabs Artists:  A B C D E F G H I J K L M N O P Q R S T U V W X Y Z 0-9

Unfortunate Engagement Guitar Tabs – Miss May I

CD, Sheet music, Poster

Do you like Unfortunate Engagement? Share with your friends now
Tabs
/) Slide Up  (\) Slide Down  (h) Hammer On  (p) Pinch Harmonic  (b) Bend (r) Release


D|--------------------------------------------------|
A|--------------------------------------------------|
C|--------------------------------------------------|
F|--------------------------------------------------|
G|--8-0-0-8-0-0-8-0-0-8-0-0-7-0-0-7-0-0-7-0-0-7-0-0-|
C|--------------------------------------------------|


D|-------------------------------------------------------|
A|-------------------------------------------------------|
C|-------------------------------------------------------|
F|-------------------------------------------------------|
G|--10-0-0-10-0-0-10-0-0-10-0-0-8-0-0-8-0-0-7-0-0-7-0-0--|
C|-------------------------------------------------------| X2


D|--------------------------------------------------|
A|--------------------------------------------------|
C|--------------------------------------------------|
F|--------------------------------------------------|
G|--8-0-0-8-0-0-8-0-0-8-0-0-7-0-0-7-0-0-7-0-0-7-0-0-|
C|--------------------------------------------------|


D|------------------------------------------------------|
A|------------------------------------------------------|
C|------------------------------------------------------|
F|------------------------------------------------------|
G|--10-0-0-10-0-0-10-0-0-10-0-0-8-0-0-8-0-0-7-0-0-7-0-0-|
C|------------------------------------------------------|


D|--------------------------------------------------|
A|--------------------------------------------------|
C|--------------------------------------------------|
F|--------------------------------------------------|
G|--8-0-0-8-0-0-8-0-0-8-0-0-7-0-0-7-0-0-7-0-0-7-0-0-|
C|--------------------------------------------------|


D|---------------------------------------------------------|
A|---------------------------------------------------------|
C|---------------------------------------------------------|
F|------------------------------3/5-2----------------------|
G|--10-0-0-10-0-0-10-0-0-10-0-0-5/7-4----------------------|
C|---------------------------------------------------------| X2


D|----------------------------------------------------------|
A|----------------------------------------------------------|
F|------------------------------------------------------8p--|
C|------------------------------------888-777-------888-----|
G|--0-0-0-888-777-0-0-0-888-777-0-0-0---------0-0-0---------|
C|--0-0-0---------0-0-0---------0-0-0---------0-0-0---------| X4
    * * *         * * *         * * *         * * *

D|------------------------------------------------------------------|
A|------------------------------------------------------------------|
F|------------------------------------------------------------------|
C|--0-3-2-0-5-3-2-3-0-3-2-0-5-3-2-3-0-3-2-0-5-3-2-3-0-3-2-0-5-3-2-3-|
G|--0-3-2-0-5-3-2-3-0-3-2-0-5-3-2-3---------------------------------|
C|--0-3-2-0-5-3-2-3-0-3-2-0-5-3-2-3---------------------------------|
    * * * * * * * * * * * * * * * *

D|--------------------------------------------------------------------|
A|--------------------------------------------------------------------|
F|--------------------------------------------------------------------|
C|----------------------------------00332200553322330033220055332233--|
G|--------------------------------------------------------------------|
C|--00332200553322330033220055332233----------------------------------| X2

D|--------------------------------------------------------------------|
A|--------------------------------------------------------------------|
F|--------------------------------------------------------------------|
C|--0-3-2-0-5-3-2-3-0-3-2-0-5-3-2-3-00332200553322330033220055332233--|
G|--0-3-2-0-5-3-2-3-0-3-2-0-5-3-2-3-----------------------------------|
C|--0-3-2-0-5-3-2-3-0-3-2-0-5-3-2-3-----------------------------------| X2
    * * * * * * * * * * * * * * * *

D|------------------------------|
A|------------------------------|
F|------------------------------|
C|----------------------888-777-|
G|--0-0-0-888-777-0-0-0---------|
C|--0-0-0---------0-0-0---------|
    * * *         * * *


D|----------------------------------------------------------|
A|----------------------------------------------------------|
F|----------------------------------------------------------|
C|------------------------------------888-777-------888-777-|
G|--0-0-0-888-777-0-0-0-888-777-0-0-0---------0-0-0---------|
C|--0-0-0---------0-0-0---------0-0-0---------0-0-0---------| X3
    * * *         * * *         * * *         * * *


D|--------------------------------------------------|
A|--------------------------------------------------|
F|--------------------------------------------------|
C|------------------------------------888-777-3/5-2-|
G|--0-0-0-888-777-0-0-0-888-777-0-0-0---------5/7-4-|
C|--0-0-0---------0-0-0---------0-0-0---------------|
    * * *         * * *         * * *

D|-----------------------------------------|
A|-----------------------------------------|
F|-----------------------------------------|
C|-----------------------------------------|
G|--0-0-0-0--000000--0-0-0-0--000-000--000-|
C|--0-0-0-0--000000--0-0-0-0--000-000--000-| X4
    * * * *  ******  * * * *  *** ***  ***

D|--------------------------------------------------------------|
A|--------------------------------------------------------------|
F|--------------------------------------------------------------|
C|--------------------------------------------------------------|
G|-----------5---5/8-------5---7/10-------5---5/8-------5---7-4-|
C|-----0-0-0---0-----0-0-0---0------0-0-0---0-----0-0-0---0-----|
       * * *   *     * * *   *      * * *   *     * * *   *


D|----------------------------------------------------------------|
A|----------------------------------------------------------------|
F|----------------------------------------------------------------|
C|------------------------------------------------8-7-5-7-5-------|
G|-----------5---5/8-------5---7/10-------5---5/8-----------8-7-5-|
C|-----0-0-0---0-----0-0-0---0------0-0-0---0---------------------|
       * * *   *     * * *   *      * * *   *


D|------------------------------------------------------------------|
A|------------------------------------------------------------------|
F|------------------------------------------------------------------|
C|--8-7-5-7-5-------7-5-3-5-3-2-0---7-5-3-5-3-2-0---7-5-3-5-3-2-0---|
G|------------8-7-5---------------0---------------0---------------0-|
C|------------------------------------------------------------------|

D|-------------------------------------|
A|-------------------------------------|
F|-------------------------------------|
C|--8-7-5-7-5-------8-7-5-7-5-------0~-|
G|------------8-7-5-----------8-7-5-0~-|
C|----------------------------------0~-|

D|----------------------|
A|----------------------|
F|----------------------|
C|----------------------|
G|--0-0-0-000-000---000-|
C|--0-0-0-000-000---000-| X4
    * * * *** ***   ***


D|------------------|
A|------------------|
F|------------------|
C|--8-7-5-7-5-------|
G|------------8-7-5-|
C|------------------|
        DO ALL OF THAT TWICE!


D|----------------------------------------------------|
A|----------------------------------------------------|
F|-10-10-10-10--9-9-9-9-------------------------------|
C|--8--8--8--8--5-5-5-5-------------------------------|
G|--8--8--8--8--5-5-5-5-----5---7---8--10---8---7---8-|
C|--8--8--8--8--5-5-5-5-0-0---0---0---0---0---0---0---| X2
                        * *   *   *   *   *   *   *

D|----------------------------------------------------|
A|----------------------------------------------------|
F|-10-10-10-10--9-9-9-9-------------------------------|
C|--8--8--8--8--5-5-5-5----12--14--15--17--15--14--15-|
G|--8--8--8--8--5-5-5-5-------------------------------|
C|--8--8--8--8--5-5-5-5-0-0---0---0---0---0---0---0---|
                        * *   *   *   *   *   *   *


D|-------------------------|
A|-------------------------|
F|-10-10-10-10--9-9-9-9-7~-|
C|--8--8--8--8--5-5-5-5-0~-|
G|--8--8--8--8--5-5-5-5-0~-|
C|--8--8--8--8--5-5-5-5-0~-|





Comments


Popular Miss May I tabs & chords
Architect Tabs
Architect 1 Tabs
Colossal 1 Tabs
Creations Tabs
Forgive And Forget 3 Tabs
Harlots Breath 2 Tabs
In Recognition Tabs
Live This Life Intro Tabs
My Hardship Tabs
Relentless Chaos Tabs


Song lyrics



↑ Back to top | Tablatures and chords are parodies/interpretations of the original songs. You may use it for private study, scholarship, research or language learning purposes only
© 2014 AZChords.com Contact us | Privacy policy | DMCA | Add/correct tabs | Request tabs | Top 50 tabs