>
 >
Tides

Tides Guitar Tabs

Miss May I - Tides chords, tabs, tablatures, lyrics

Guitar lessons | Add/correct | Request | Top 50 tabs Artists:  A B C D E F G H I J K L M N O P Q R S T U V W X Y Z 0-9

Tides Guitar Tabs – Miss May I

CD, Sheet music, Poster

Do you like Tides? Share with your friends now
Tabs

Main intro pattern
|-----------------------------------|
|-----------------------------------|
|-----------------------------------|
|-----------------------------------|
|-00-00-000000--000000-000----------|
|-00-00-000000--000000-000----------|
  .. .. ......  ...... ...
|---------------------------------------------------------|
|---------------------------------------------------------|
|---------------------------------------------------------|
|-------------------8-5--7-3---------------8-5--7-3-------|
|-8-5----------8-5-----------------------------------8-5--|
|-----000-000-0----0----0----000-000-000--0----0----0-----|
      ... ... .    .    .    ... ... ...  .    .    .
 
while this part plays guitar 2 plays main intro pattern
|-----------------------------------|
|-----------------------------------|
|--10----9----10----7---------------|
|----x17--x16---x16--x16------------|
|--8-----7----8-----5---------------|
|-----------------------------------|

Verse 1
|--------------------------------------------------|-play-1st-3rd-|
|--------------------------------------------------|-and-4th-time-|
|--------------------------------------------------|--------------|
|--------------------------------------------------|--------------|
|---------------4--4h58--7h8r4-5r1---------------4-|-0------------|
|-8-000875-0-4h5--0-----0----------8-000875-0-4h5--|-0x16---------|
    ...    .      .     .            ...    .        .

|--------------------|
|----2nd-------------|
|----time------------|
|--------------------|
|-00000000-000-000---|
|-00000000-000-000---|
  ........ ... ...

verse 2
|------------------------------------------|------------------------------|
|------------------------------------------|-----1st time-----------------|
|------------------------------------------|------------------------------|
|------------------------------------------|--5-7-8-7-5---5-7-8-87575-----|
|--------8r5---------0h4h5--0h5h7----------|-------------------------875--|
|-8-8888----8-8888888-----88-----8-0000000-|-0-0-0-0-0--00-0-0-0----------|
    ....      .......     ..       .......   . . . . .  .. . . .

|-----------------------------------|
|------2nd-time---------------------|
|-----------------------------------|
|--5-7-8-7-5------------------------|
|-------------7-8-7-5-7-5-3-5-------|
|-0-0-0-0-0---7-8-7-5-7-5-3-5-------|
  . . . . .

Breakdown part 1
|--------------------------------------------------------------------|
|--------------------------------------------------------------------|
|--------------------------------------------------------------------|
|-----------------8888----55558888----------------------7777----5555-| x2
|-00--00--0000-00-----8888---------88--88--8888-88-------------------|
|-00--00--0000-00------------------88--88--8888-88--8888----7777-----|
  ..  ..  .... ..                  ..  ..  .... ..  


Breakdown part 2 lead
|---------------------------------------------------------------|
|---------------------------------------------------------------|
|---------------------------------------------------------------|
|------------------55557788101010101010101088887777555533332222-|
|--5555555533557777---------------------------------------------|
|---------------------------------------------------------------|


Breakdown part 2 rhythm
|---------------------------------------------------------|
|---------------------------------------------------------|
|---------------------------------------------------------|
|---------------------------------------------------------|
|-00--00--0000-00--0-0000-0---88--88--8888-88--8-8888-8---|
|-00--00--0000-00--0-0000-0---88--88--8888-88--8-8888-8---|
  ..  ..  .... ..  . .... .   ..  ..  .... ..  . .... .


|--------------------------------------------------------------------------|
|--------------------------------------------------------------------------|
|--------------------------------------------------------------------------|
|--------------7-5-7------7-5-7-10-7-0--------0-2-0-2-3s5--------3-2-5-7-3-|
|--5----7-8----------------------------------------------------------------|
|---0000-0---00-0-0-888888-8-8-8--8-8-33333333-3-3-3-3---55555555-5-5-5-5-5|
    .... .   .. . . ...... . . .  . . ........ . . . .   ........ . . . . .


Clean vocals bit (unsure about rhythm)

Lead
|----------------------------------------|
|----------------------------------------|
|-7---10---12---15----10--12---15---12---|
|--x8---x8---x8---x8---x8---x8---x8---x8-|
|-5---8----10---13----8---10---13---10---|
|----------------------------------------|

rhythm
|--------------------------------|
|--------------------------------|
|--------------------------------|
|-0----8---5--\------------------|
|-0x16-8x8-5x8-|-x2--------------|
|-0----8---5--/------------------|


Lead
|-----------------------------------|
|-----------------------------------|
|-10----15---17---15---\------------|
|---x8----x8---x8---x8--|x2---------|
|-8-----13---15---13---/------------|
|-----------------------------------|

Rhythm
|--------------------------------|
|--------------------------------|
|--------------------------------|
|-0----8---5--\------------------|
|-0x16-8x8-5x8-|-x2--------------|
|-0----8---5--/------------------|


End Breakdown x2
|-----------------------------------|
|-----------------------------------|
|-----------------------------------|
|-----------------------------------| x2
|-0000000000000000---000--000-0-----|
|-0000000000000000---000--000-0-----|


|-----------------------|-first-|-second-|--------------|
|-----------------------|-time--|-time---|--------------|
|-----------------------|-------|--------|--------------|
|-----------------------|-------|--------|--------------|x2
|-00000000-000-000-000--|-10(ah)|-12(ah)-|-0-0-0-0-0-0--|
|-11111111-111-111-111--|-------|--------|-1-1-1-1-1-1--|


End on
|-----------------------------------|
|-----------------------------------|
|-----------------------------------|
|-----------------------------------|
|-00000000-000-000-000--------------|
|-00000000-000-000-000--------------|





Comments


Popular Miss May I tabs & chords
Relentless Chaos Bass Tabs
Apologies Are For The Weak Tabs
Blessed By A Curse Tabs
Blessing With A Curse Tabs
Creations Tabs
Day By Day Tabs
Forgive And Forget 2 Tabs
Harlots Breath 2 Tabs
Harlots Breath Intro Tabs
Swing Tabs


Song lyrics



↑ Back to top | Tablatures and chords are parodies/interpretations of the original songs. You may use it for private study, scholarship, research or language learning purposes only
© 2014 AZChords.com Contact us | Privacy policy | DMCA | Add/correct tabs | Request tabs | Top 50 tabs