» » »

Miss May I, Relentless Chaos Bass tabs (ver.1)

Artists:  A B C D E F G H I J K L M N O P Q R S T U V W X Y Z # 

Relentless Chaos Bass tabs (ver.1)

Miss May I Tabs
 Rating:
4/5 (4 votes)
Relentless Chaos lessons Tabs too difficult? Try these video lessons and learn fast
1
                Tuning: Drop C

This is a pretty easy song to play. It may not, and probably isn't 100%, but I didn't 
see any tabs for the bass part so I figured I'd contribute. Feel free to 
criticize/complain/compliment. Thanks :)

Intro:
F:|-----------------------------------------|
C:|-----------------------------------------|
G:|-----------------------------------------|
C:|-0000-0000-0000-0000-7777-7777-7777-/12--| x4

Verse 1:
F:|-----------------------| You should be able to tell when to switch to the
C:|-----------------------| 8, just listen for a change in the guitar.
G:|-----------------------|
C:|-0---------------8-----| x2 [figure out how long to strum each]

Pre-Verse
F:|----------|
C:|----------|
G:|----------|
C:|-0--0--0--|

Verse 2:
F:|-------------------|
C:|-------------------|
G:|-------------------|
C:|-0x24(or so)-3-2-1-| x4

"RELENTLESS CHAOS..."
F:|----------------------------|
C:|----------------------------|
G:|----------------------------|
C:|-0-0000-00-0-1-1111-1-3-1-0-| x4

After:
F:|----------------|
C:|----------------|
G:|-------12\-10-8-|
C:|-0~-------------|

Repeat Verse 1 part x2

Bridge:
F:|----------------------|
C:|----------------------|
G:|----------------------|
C:|-0~----7~----0~----7~-|

Repeat Intro x4

Verse 3:
F:|-------------------| Same as Verse 1, listen to change in guitar to figure
C:|-------------------| out when to strum 8 and 7.
G:|-------------------|
C:|-0------8------7---|

Breakdown:
F:|----------------|
C:|----------------|
G:|----------------|
C:|-000-000-x0-000-| x4 [after 2x's let all notes ring out]

Outro:
F:|-----|
C:|-----|
G:|-----|
C:|-00--| Just play this double 'till the end.
            
Submit corrections

comments powered by Disqus
↑ Back to top | Miss May I Bass for Relentless Chaos. Lyrics for acoustic guitar and electric guitar. 1 Tablatures and chords are parodies/interpretations of the original songs. You may use it for private study, scholarship, research or language learning purposes only