>
 >
Monument

Monument Guitar Tabs

Miss May I - Monument chords, tabs, tablatures, lyrics

Guitar lessons | Add/correct | Request | Top 50 tabs Artists:  A B C D E F G H I J K L M N O P Q R S T U V W X Y Z 0-9

Monument Guitar Tabs – Miss May I

CD, Sheet music, Poster

Do you like Monument? Share with your friends now
TabsTabs v2
Hello, Some of this maybe be wrong if so let me know :) - Drop C

Intro

Guitar 1
|--------------------------------------------------------|
|--------------------------------------------------------|
|--------------------------------------------------------|
|--------------------------------------------------------|
|-5----5----587----7----7108----8----8--12----12----12---|
|--0000-0000---0000-0000----0000-0000-00--0000--0000--00-|
   .... ....   .... ....    .... .... ..  ....  ....  ..


Guitar 2
|--------------------------------------------------------|
|--------------------------------------------------------|
|--------------------------------------------------------|
|-3----3----375----5----587----7----7--10----10----10----|
|--------------------------------------------------------|
|--0000-0000---0000-0000---0000-0000-00--0000--0000--00--|
   .... ....   .... ....   .... .... ..  ....  ....  ..

Both guitars                               (tremolo pick)
|---------------------------------------|-------1st--------|----2nd---|
|---------------------------------------|------------------|----------|
|-----------------------10--------------|-1010997799775577-|----------|
|--------------------810--10------------|------------------|----------|
|--------------888-10-------------------|------------------|-7777777--|
|-8~-8---888~--^^^-----------5~-5~-887~-|------------------|-7777777--|
               Triplet                    . . ............   .......

Both Guitars
|--------------------------------------------------------|
|--------------------------------------------------------|
|--------------------------------------------------------| x2
|--------------------------------------------------------|
|-5s8-7------7s10-8------8s12-10-------------------------|
|----0-0-0000----0-0-0000----0--0-0000-10888888107777777-|
     . . ....    . . ....    .  . .... . ....... .......


Tremolo part x 2

Guitars 1
|--------------------------------------------------------------------------|
|--------------------------------------------------------------------------|
|--------------------------------------------------------------------------|
|--------------------------------------------------------------------------|
|--------------------------------------------------------------------------|
|-888888888888777755555555777788887777777777777777101010101010101088887777-|


|--------------------------------------------------------------------------|
|--------------------------------------------------------------------------|
|--------------------------------------------------------------------------|
|--------------------------------------------------------------------------|
|--------------------------------------------------------------------------|
|-88888888888877775555555577778888-000-000---000-000---000-----------------|
                                   ... ...   ... ...   ...
                                   ^^^ ^^^   ^^^ ^^^   ^^^
                                   triplets


Guitar 2
|--------------------------------------------------------------------------|
|--------------------------------------------------------------------------|
|--------------------------------------------------------------------------|
|--------------------------------------------------------------------------|
|-5555555555553333111111113333555544444444444444448888888877774444---------|
|--------------------------------------------------------------------------|

|--------------------------------------------------------------------------|
|--------------------------------------------------------------------------|
|--------------------------------------------------------------------------|
|--------------------------------------------------------------------------|
|-55555555555533331111111133335555-----------------------------------------|
|----------------------------------000-000---000-000---000-----------------|
                                   ... ...   ... ...   ...
                                   ^^^ ^^^   ^^^ ^^^   ^^^
                                   triplets


Breakdown

Part 1 - both guitars

|--------------------------------------------------------|
|--------------------------------------------------------|
|--------------------------------------------------------|
|--------------------------------------------------------| x 2
|-000-0-0---000--000--000-0-0--000-0-0---0--0--0--0--0---|
|-000-0-0---000--000--000-0-0--000-0-0---0--0--0--0--0---|
  ... . .   ...  ...  ... . .  ... . .   .  .  .  .  .


Part 2 - both guitars
|--------------------------------------------------|
|--------------------------------------------------|
|--------------------------------------------------|
|--------------------------------------------------| x2
|-0-0-0---0--0-0---0-0-0---0-0-0---0--0--0--0--0---|
|-1-1-1---1--1-1---1-1-1---1-1-1---1--1--1--1--1---|
  . . .   .  . .   . . .   . . .   .  .  .  .  .


Chorus

Guitar 1
|----------------------------------------------------------------|
|----------------------------------------------------------------|
|-7---9---10---12---14---15---14---12---10---14---12---10---9----|
|--x8--x8---x8---x4---x4---x6---x2---x4---x4---x4---x4---x4--x4--| x2
|-5---7---8----10---12---13---12---10---8----12---10---8----7----|
|----------------------------------------------------------------|


Guitar 2
|-------------------------------------------------------------------|
|-------------------------------------------------------------------|
|-------------------------------------------------------------------|
|-0------8------10------0------------0~-0-----10-----8------10------| x 1
|-0-x32--8-x16--10-x16--0-x8-(pause)-0~-0-x8--10-x8--8-x16--10-x16--|
|-0------8------10------0------------0~-0-----10-----8------10------|

Verse 1 - part 1

Both guitars
|-----------------------------------------------------------|
|-----------------------------------------------------------|
|-----------------------------------------------------------|
|-----------------------------------------------------------| x2
|-5---5--8-7h8r4--5---5---4------4--4-4--1------1--1-1------|
|--000-00-0-----00-000-00-4-4444-4--4-4--1-1111-1--1-1------|
   ... .. .     .. ... ..   ....           ....

Verse 1 - part 2

Guitar 1
|-----------------------------------------------------------------|
|-----------------------------------------------------------------|
|-----------------------------------------------------------------|
|-----------------------------------------------------------------|
|-5----5-------88775577554455--5----5-------12121010881010887788--|
|--0000-0000000-----------------0000-0000000----------------------|
   .... .....................   .... ...........................


Guitar 1 continue
|----------------------------------------------|
|----------------------------------------------|
|----------------------------------------------|
|----------------------------------------------|
|-555555------555----555555------444444--------|
|----------------------------------------------|


Guitar 2
|------------------------------------------------------------------------------------------------|
|------------------------------------------------------------------------------------------------|
|------------------------------------------------------------------------------------------------|
|------------------------------------------------------------------------------------------------|
|-555555------555-----555555--4444--5----5------88775577554455-----------------------------------|
|------------------------------------0000-000000---------------8888888810108810107777777710101010|
                                     .... ....................

Repeat tremolo part


repeat chorus

Pre ending

Both Guitars
|----------------------------------------|
|----------------------------------------|
|----------------------------------------|
|----------------------------------------|
|-0~---------0~--------------------------|
|-0~---------0~-(stop-ringing)--12(db)---|

Ending

Both guitars
|---------------------------------------------|
|---------------------------------------------|
|---------------------------------------------|
|---------------------------------------------| x4 (fourth time no db)
|-0--0--0--0--0---0-0-0-0---------------------|
|-1--1--1--1--1---1-1-1-1---(bass)----12(db)--|
  .  .  .  .  .   . . . .

. = Palm mute
db = Dive bomb on whammy bar
~ = let it ring
h = hammer on
r = release





Comments


Popular Miss May I tabs & chords
Answers Tabs
Apologies Are For The Weak 2 Tabs
Arms Of The Messiah Tabs
Ballad Of A Broken Man Tabs
Creations Tabs
Day By Day Tabs
Day By Day 1 Tabs
Forgive And Forget 1 Tabs
Forgive And Forget 4 Tabs
Masses Of A Dying Breed 1 Tabs


Song lyrics



↑ Back to top | Tablatures and chords are parodies/interpretations of the original songs. You may use it for private study, scholarship, research or language learning purposes only
© 2014 AZChords.com Contact us | Privacy policy | DMCA | Add/correct tabs | Request tabs | Top 50 tabs