>
 >
Lullaby For A Beast

Lullaby For A Beast Guitar Tabs

Miss May I - Lullaby For A Beast chords, tabs, tablatures, lyrics

Guitar lessons | Add/correct | Request | Top 50 tabs Artists:  A B C D E F G H I J K L M N O P Q R S T U V W X Y Z 0-9

Lullaby For A Beast Guitar Tabs – Miss May I

CD, Sheet music, Poster

Do you like Lullaby For A Beast? Share with your friends now
Tabs

Tuning Drop C


"THROW THE LIGHTS OUT!"
|-------------------------------------------------------------------------------|
|-------------------------------------------------------------------------------|
|-------------------------------------------------------------------------------|
|-------------------------------------------------------------------------------| x4
|--44444444444666666667777777777666666644444433333333---------------------------|
|---------------------------------------------------------77777777744444444-----|

|---------------------------------------------------------------------------|
|---------------------------------------------------------------------------|
|--------------------(not sure on this transition.)-------------------------|
|---------------------------------------------------------------------------|
|---------------------------------------------------------------------------|
|---------------------------------------------------------------------------|

|---------------------------------------------------------------------------|
|---------------------------------------------------------------------------|
|---------------------------------------------------------------------------|
|---------------------------------------------------------------------------| x4
|----4-4---4-4---4---7-7---6-6---3------------------------------------------|
|--00-0--00-0--00--00-0--00-0--00-------------------------------------------|
   ** *  ** *  **  ** *  ** *  ** 
|---------------------------------------------------------------------------|
|---------------------------------------------------------------------------|
|---------------------------------------------------------------------------|
|---------------------------------------------------------------------------|
|--444444444444333333334444444447777777776666666644444444433333333----------|
|---------------------------------------------------------------------------|

|---------------------------------------------------------------------------|
|---------------------------------------------------------------------------|
|---------------------------------------------------------------------------|
|---------------------------------------------------------------------------|
|----4-4---4-4-7-467----4-4--7777666664444433333----------------------------|
|--00-0--00-0---0-----00-0--------------------------------------------------|
   ** *  ** *   *     ** *
|---------------------------------------------------------------------------|
|---------------------------------------------------------------------------|
|---------------------------------------------------------------------------|
|---------------------------------------------------------------------------|
|--444444444444333333334444444447777777776666666644444444433333333----------|
|---------------------------------------------------------------------------|

|---------------------------------------------------------------------------|
|---------------------------------------------------------------------------|
|---------------------------------------------------------------------------|
|---------------------------------------------------------------------------| x2
|----4-4---4-4-7-467----4-4--7777666664444433333----------------------------|
|--00-0--00-0---0-----00-0--------------------------------------------------|
   ** *  ** *   *     ** *
|------------------------------------------------------------------------------------------------|
|------------------------------------------------------------------------------------------------|
|------------------------------------------------------------------------------------------------|
|-----------------------------------------------------------------------------------------------|x2
|--4-6-7-6-7-9-7-6-----------------------------4-6-7-6-7-9-7-9-11-9-11-12------------------------|
|------------------77777777744444444446666666----------------------------777777774444444446666666|

|----------------------------------------------------------------------------------|
|----------------------------------------------------------------------------------|
|----------------------------------------------------------------------------------|
|-----------------------------------------7~---7~-8~--5~---7~---3~---7~--8~---5~---|
|--0~---4~~----1~~----0~~----4~~----1~~------------------------------------------0-|
|--0~---4~~----1~~----0~~----4~~----1~~------------------------------------------0-|

|---------------------------------------------------------------------------|
|---------------------------------------------------------------------------|
|---------------------------------------------------------------------------|
|---------------------------------------------------------------------------|
|---00----------------------------------------------------------------------|
|---00----------------------------------------------------------------------|
    **    (simple breakdown, listen for rhythm.)

|---------------------------------------------------------------------------|
|---------------------------------------------------------------------------|
|---------------------------------------------------------------------------|
|-------------------------------------------7-7-7---------8-8-8-------------| x4
|------------------------------------0-0-0--8-8-8--0-0-0--7-7-7-------------|
|--3333333366666665555555511111111---0-0-0---------0-0-0--------------------|
                                     * * *         * * *

|-----------------------------------------------------------------------------------------|
|-----------------------------------------------------------------------------------------|
|-----------------------------------------------------------------------------------------|
|---------7-7-7---------8-8-8---------7-7-7---------8-8-8---------7-7-7---------8-8-8~~~--|
|--0-0-0--8-8-8--0-0-0--7-7-7--0-0-0--8-8-8--0-0-0--7-7-7--0-0-0--8-8-8--0-0-0--7-7-7~~~--|
|--0-0-0---------0-0-0---------0-0-0---------0-0-0---------0-0-0---------0-0-0------------|
   * * *         * * *         * * *         * * *         * * *         * * *

|---------------------------------------------------------------------------|
|---------------------------------------------------------------------------|
|---------------------------------------------------------------------------|
|---------------------------------------------------------------------------|
|---00----------------------------------------------------------------------|
|---00----------------------------------------------------------------------|
    **    (another simple breakdown, listen for rhythm.)                                        
                                                           
|-----------------------------------------------------------------------------------------|
|-----------------------------------------------------------------------------------------|
|-----------------------------------------------------------------------------------------|
|----------7-8-7---------------7-10-8-7------------7-8-7--------------7-10-8-7------------|
|------5-8-------8-7-------5-8----------8------5-8-------8-7------5-8----------8---0------|
|--0-0--0-0-0-0-0-0----0-0--0-0-0--0-0-0---0-0--0-0-0-0-0-0---0-0--0-0-0--0-0-0----0------|
   * *  * * * * * *    * *  * * *  * * *   * *  * * * * * *   * *  * * *  * * *   


Enjoy :)









************************************

| /   slide up
| \   slide down
| h   hammer-on
| p   pull-off
| ~   vibrato
| +   harmonic
| x   Mute note
| b   Bend
| pb  Pre-bend
| br  Bend release
| pbr Pre-bend release
| brb Bend release bend

************************************





Comments


Popular Miss May I tabs & chords
Relentless Chaos Bass Tabs
Relentless Chaos 2 Bass Tabs
Swing Bass Tabs
A Dance With Aera Cura Tabs
Blessed By A Curse Tabs
Forgive And Forget Tabs
Gears Tabs
In Recognition Tabs
Monument Tabs
In Recognition Ukulele


Song lyrics



↑ Back to top | Tablatures and chords are parodies/interpretations of the original songs. You may use it for private study, scholarship, research or language learning purposes only
© 2014 AZChords.com Contact us | Privacy policy | DMCA | Add/correct tabs | Request tabs | Top 50 tabs