>
 >
In Recognition

In Recognition Guitar Tabs

Miss May I - In Recognition chords, tabs, tablatures, lyrics

Guitar lessons | Add/correct | Request | Top 50 tabs Artists:  A B C D E F G H I J K L M N O P Q R S T U V W X Y Z 0-9

In Recognition Guitar Tabs – Miss May I

CD, Sheet music, Poster

Do you like In Recognition? Share with your friends now
ChordsTabsUkulele
[In Recognition]
[Monument]
[Miss May I]

Tuning: Drop C (CGCFAD/Drop D 1 Step Down)

[Riff 1] - [00:00] - [00:51-----------------------------------------| - [4x]
- -------------0-------------------------------0--------------------|
- ---------6-----------6-------------------6-----------6------------|
- -------------------------7-------------------------------7--------|
- -----7-----------------------7-------7-----------------------7----|
- ------------------------------------------------------------------|
- -0-------------------------------0--------------------------------|

- -------------0---------------------------------0-----------------|
- -------6---------------------------------6-----------------------|
- -----------------------------------------------------------------|
- -----------------------------------------------------------------|
- -8---8---------------------------7---7---------------------------|
- -----------------------------------------------------------------|

----------------------------------------------------------------------------

[Riff 2] - [00:51] - [00:58]
- -----------------------------------------------------|
- -----------------------------------------------------|
- -----------------------------------------------------|
- -------------10------------------------------12------|
- -----8-------------------8-----------10--------------|
- -8-------8-----------8-------8---10------10----------|

----------------------------------------------------------------------------

[Riff 3] - [00:58] - [01:23]
- -----------------------------------------------------------------|
- -----------------------------------------------------------------|
- -----------------------------------------------------------------|
- -1-------3-------5-------8--\0---1-------3-------5-------8--\0---|
- -1-------3-------5-------8--\0---1-------3-------5-------8--\0---|
- -1-------3-------5-------8--\0---1-------3-------5-------8--\0---|

----------------------------------------------------------------------------

[Riff 4a] - [01:23] - [01:36]
- ---------------------------------|
- ---------------------------------|
- ---------------------------------|
- -1-------3-------5---------------|
- -1-------3-------5---------------|
- -1-------3-------5---------------|

[Riff 4b] - [01:23] - [01:36]
- ------------------------------------------------------------------|
- -------------15----------15-16\15-13--------------15----13----15--|
- -12---------------------------------------------------------------|
- ------------------------------------------------------------------|
- ------------------------------------------------------------------|
- ------------------------------------------------------------------|

- ------------------------------------------------------------------|
- -12h14p12--12-----------------------------------------------------|
- ---------14--10/12------------------10--10------------------------|
- ----------------------------------------------------12--12--------|
- ------------------------------------------------------------------|
- ------------------------------------------------------------------|

----------------------------------------------------------------------------

[Riff 1] - [01:36] - [02:02]

[Riff 5] - [02:03] - [02:29]
- -----------------------------------------------------------------|
- -----------------------------------------------------------------|
- -----------------------------------------------------------------|
- -5-------5-------1-------3-------5-------5-------1-------3-------|
- -5-------5-------1-------3-------5-------5-------1-------3-------|
- -5-------5-------1-------3-------5-------5-------1-------3-------|

----------------------------------------------------------------------------

[Riff 6] - [02:29] - [02:32]
- ---------|
- ---------|
- ---------|
- -3-------|
- -3-------|
- -3-------|

----------------------------------------------------------------------------

[Riff 3] - [02:32] - [02:58]
[Riff 4a + 4b] - [02:58] - [03:17]

----------------------------------------------------------------------------

[Symbols]

/    Slide Up
\    Slide Down
h    Hammer On
p    Pull Off

:)





Comments


Popular Miss May I tabs & chords
In Recognition Chords
Architect 1 Tabs
Day By Day Tabs
Forgive And Forget 2 Tabs
Harlots Breath 2 Tabs
Lullaby For A Beast Tabs
Masses Of A Dying Breed 1 Tabs
Monument Tabs
My Hardship Tabs
Relentless Chaos 3 Tabs


Song lyrics



↑ Back to top | Tablatures and chords are parodies/interpretations of the original songs. You may use it for private study, scholarship, research or language learning purposes only
© 2014 AZChords.com Contact us | Privacy policy | DMCA | Add/correct tabs | Request tabs | Top 50 tabs