>
 >
Harlots Breath

Harlots Breath Guitar Tabs

Miss May I - Harlots Breath chords, tabs, tablatures, lyrics

Guitar lessons | Add/correct | Request | Top 50 tabs Artists:  A B C D E F G H I J K L M N O P Q R S T U V W X Y Z 0-9

Harlots Breath Guitar Tabs – Miss May I

CD, Sheet music, Poster

Do you like Harlots Breath? Share with your friends now
TabsTabs v2
I am tabbing this song by ear, so if you have any suggestions or see any mistakes,
let me know and i will look into it. Please rate and comment. Thanks


Key:
. Palm Mute
* Tremolo Mute
~ Sustain
h Hammer On
p Pull Off
/ Slide Up
\ Slide Down
^ Bend
r Release Bend
X Mute String
tr Tremolo Pick


Intro:

Guitar I
D|---------------------------------------------------------|-------------------------|
A|---------------------------------------------------------|-------------------------|
F|---------------------------------------------------------|----(only do first time)-| x2
C|---------------------------------------------------------|-------------------------|
G|----0-----0--------000---000-000-----0-----0--------000--|-000000------------------|
C|-5--0--8--0--4~----000---000-000--5--0--8--0--1~----000--|-000000------------------|
      .     .        ...   ... ...     .     .        ...    ......

Guitar II
D|---------------------------------------------------------|-------------------------|
A|---------------------------------------------------------|-------------------------|
F|---------------------------------------------------------|----(only do first time)-|
C|---------------------------------------------------------|-------------------------|
G|----0-----0--------000---000-000-----0-----0--------000--|-000000------------------|
C|-5--0--8--0--4~----000---000-000--5--0--8--0--4~----000--|-000000------------------|
      .     .        ...   ... ...     .     .        ...    ......

D|-------------------------------------------------------------|
A|-------------------------------------------------------------|
F|-------------------------------------------------------------|
C|-------------------------------------------------------------|
G|-----0------0--------000---000-000------0------0--------000--|
C|-10--0--13--0--9~----000---000-000--10--0--13--0--6~----000--|
       .      .        ...   ... ...      .      .        ...  

D|----------------------------------------------------------------|
A|----------------------------------------------------------------|
F|----------------------------------------------------------------| x2
C|----------------------------------------------------------------|
G|-5------0-8------0-4----------5------0-8------0-4----1----------|
C|-5tr----0-8tr----0-4tr--------5tr----0-8tr----0-4tr--1tr--------|
   .      . .      . .          .      . .      . .    .

Pre-verse:

Guitar I
D|-------------------------------------------------|
A|-------------------------------------------------|
F|-------------------------------------------------|
C|-------------------------------------------------|
G|-0-----------------------------------------------|
C|-0-0000-0h5h8-0000-0h8h11--00-0h5h8-00-8--11--8--|
     ....       ....         ..       .

Guitar II
D|-------------------------------------------------|
A|-------------------------------------------------|
F|-------------------------------------------------|
C|-------------------------------------------------|
G|0----000-----------000-------0~------------------|
C|0----000-----------000-------0~------------------|
       ..            ..


Verse:

Guitar I
D|-------------------------------------------------|
A|-------------------------------------------------| x4
F|-------------------------------------------------|
C|-------------------------------------------------|
G|-0-----------------------------------------------|
C|-0-0000-0h5h8-0000-0h8h11--00-0h5h8-00-8--11--8--|
     ....       ....         ..       .

Guitar II
D|-------------------------------------------------|
A|-------------------------------------------------|
F|---------------------------------------------x2--|
C|-------------------------------------------------|
G|-0-----------------------------------------------|
C|-0-0000-0h5h8-0000-0h8h11--00-0h5h8-00-8--11--8--|
     ....       ....         ..       .             

--------------------------------------------------------|
--------------------------------------------------------|
----------------------------------------------------x2--|
--------------------------------------------------------|
-0------------------------------------------------------|
-0-0000-0h10h13-0000-0h13h16--00-0h10h13-00-13--16--13--|
   ....         ....          ..         ..

Guitar I
D|--------------------------------------------------------------------------------------------|
A|--------------------------------------------------------------------------------------------|
F|--------------------------------------------------------------------------------------------| x2
C|--------------------------------------------------------------------------------------------|
G|-000--000-0-000-000--000-0--0-0-0--000--000-0--000--888-777-888-101010-121212-101010-888-77-|
C|-000--000-0-000-000--000-0--0-0-0--000--000-0--000------------------------------------------|
   ...  ... . ... ...  ... .  . . .  ...  ... .  ...

Guitar II
D|-----------------------------------------------------------------------------------|
A|-----------------------------------------------------------------------------------|
F|-----------------------------------------------------------------------------------| x2
C|-----------------------------------------------------------------------------------|
G|-000--000-0-000-000--000-0--0-0-0--000--000-0--000--555-444-555-777-888-777-555-44-|
C|-000--000-0-000-000--000-0--0-0-0--000--000-0--000---------------------------------|
   ...  ... . ... ...  ... .  . . .  ...  ... .  ...

Both Guitars
D|------------------|
A|------------------|
F|------------------|
C|------------------|
G|-000--000-0--000--|
C|-000--000-0--000--|
   ...  ... .  ...


Bridge:

Guitar I
D|---------------------------------------------|
A|---------------------------------------------|
F|----------------------------------------x4---|
C|---------------------------------------------|
G|-8tr----7tr--5tr------4tr----5tr--1tr--------|
C|---------------------------------------------|

Guitar II
D|---------------------------------------------|-----------------------------------------------|
A|---------------------------------------------|-----------------------------------------------|
F|----------------------------------------x2---|------------------------------------------x2---|
C|---------------------------------------------|-----------------------------------------------|
G|-8tr----7tr--5tr------4tr----5tr--1tr--------|-12tr----10tr--8tr------7tr----8tr--4tr--------|
C|---------------------------------------------|-----------------------------------------------|


Riff I:

Guitar I
D|---------------------------|--------------|---------------------|
A|---------------------------|--------------|---------------------|
F|---------------------------|-(First time)-|-------(Second time)-| x2
C|---------------------------|--------------|---------------------|
G|-----5-1-------------------|--------------|-8888-7777-----------|
C|-000--0--0000----000-0-0-0-|-000-0-0-0----|---------------------|
   ...  .  ...     ...   .     ...   .   

Guitar II
D|---------------------------|--------------|---------------------|
A|---------------------------|--------------|---------------------|
F|---------------------------|-(First time)-|-------(Second time)-| x2
C|---------------------------|--------------|---------------------|
G|-----5-1-------------------|--------------|---------------------|
C|-000--0--0000----000-0-0-0-|-000-0-0-0----|-8888-7777-----------|
   ...  .  ...     ...   .     ...   .   

Chorus:

D|---------------------------------------------------------------|
A|---------------------------------------------------------------|
F|---------------------------------------------------------------|
C|---------------------------------------------------------------|
G|--8------8------8-8-----8-8-----10-----10-----10-12-10-8-10-8--|
C|--5--000-5--000-5-5-000-5-5-000-8--000-8--000---0--0--0-0--0---|
       ...    ...     ...     ...    ...    ...   .  .  . .  .

D|------------------------------------------------------------------------------------------|
A|------------------------------------------------------------------------------------------|
F|------------------------------------------------------------------------------------------|
C|-7-----7-----7----10-10--9--9-9-7--7------7-------9-9-9-10-10-10--12--12--12--14--14--14--|
G|-X-----X-----X-----X--X--X--X-X-X--X------X-------X-X-X--X--X--X---X---X---X---X---X---X--|
C|-5-000-5-000-5-000-8--8--7--7-7-5--5--000-5--000--7-7-7--8--8--8--10--10--10--12--12--12--|
     ...   ...   ...                    ...    ...    

D|----------------------------------------------------------------------|
A|----------------------------------------------------------------------|
F|----------------------------------------------------------------------|
C|-10------10------10-10-----10-10-----12------12-----------------------|
G|--X-------X-------X--X------X--X------X-------X------10-12-10-8-10-8--|
C|--8--000--8--000--8--8-000--8--8-000-10--000-10--000---0--0--0-0--0---|
       ...     ...       ...       ...     ...     ...   .  .  . .  .


D|------------------------------------------------------------------------------------------|
A|------------------------------------------------------------------------------------------|
F|------------------------------------------------------------------------------------------|
C|-7-----7-----7----10-10--9--9-9-7--7------7-------9-9-9-10-10-10--12--12--12--14--14--14--|
G|-X-----X-----X-----X--X--X--X-X-X--X------X-------X-X-X--X--X--X---X---X---X---X---X---X--|
C|-5-000-5-000-5-000-8--8--7--7-7-5--5--000-5--000--7-7-7--8--8--8--10--10--10--12--12--12--|
     ...   ...   ...                    ...    ...   

D|---------------------------------------|
A|---------------------------------------|
F|---------------------------------------|
C|-10~-----10--10--12~-------------------|
G|--X-------X---X---X-------7-8-7-5-7-5--|
C|--8~------8---8--10~------7-8-7-5-7-5--|
                            * * * * * *


Riff II:

D|----------|------------------------------|(second----|-------------------------------------|
A|----------|------------------------------|--time-----|-------------------------------------|
F|----------|---------------------------x2-|--only)----|----------------------------------x2-|
C|----------|------------------------------|-----------|-------------------------------------|
G|----------|-0000--0000-0000--000-000-000-|-0000------|-0000--0000--0000-0000--000-000-000--|
C|-000-3^5r-|-0000--0000-0000--000-000-111-|-0000------|-0000--0000--0000-0000--000-000-111--|
   ...        ...   ...  ...   ... *** ***   ...         ****  ****  **** ****  *** *** ***


Bridge II:

D|------------------------|
A|------------------------|
F|------------------------|
C|-0~----0~---------------|
G|-0~----0~---------------|
C|-0~----0~---/pickslide--|


Verse II:

D|----------------------|---------------------------------|
A|----------------------|---------------------------------|
F|----------------x2----|---------------------------------| x2
C|----------------------|---------------------------------|
G|-5-----8-5--7--8------|-5-----5-0--1--0-1-----5-0--1--0-|
C|--88888-8-88-88-8-----|--00000-0-00-00-0-00000-0-00-00--|
    ..... . .. .. .        ..... . .. .. . ..... . .. ..


Solo:

Guitar I
D|--------------10-12-13---/17-15---------/17-15----------------------|
A|---------11-13------------------18-17~---------18-17-17h18p17-13-15-|
F|-10-12-13-----------------------------------------------------------|
C|--------------------------------------------------------------------|
G|--------------------------------------------------------------------|
C|--------------------------------------------------------------------|

-/17-15----20--/22-20-18-17-17h18p17----|
--------18--------------------------18--|
----------------------------------------|
----------------------------------------|
----------------------------------------|
----------------------------------------|


D|--/17-15---------/17-15----------------------/17-15----20--/22-20-18-17~----|
A|---------18-17~---------18-17-17h18p17-13-15--------18----------------------|
F|----------------------------------------------------------------------------|
C|----------------------------------------------------------------------------|
G|----------------------------------------------------------------------------|
C|----------------------------------------------------------------------------|

Guitar II
D|-------------------------------|
A|-------------------------------| x2
F|-------------------------------|
C|--8~----8~----8/10-0~----0~----|
G|-10~---10~---10/12-0~----0~----|
C|--8~----8~----8/10-0~----0~----|

Guitar III
D|-------------------------------|-----------------------------|
A|-------------------------------|-----------------------------|
F|-------------------------------|-----------------------------|
C|--8~----8~----8\10-0~----0~----|-/5~----5~----5/7--9~----9~--|
G|-10~---10~---10\12-0~----0~----|-----------------------------|
C|--8~----8~----8\10-0~----0~----|-----------------------------|


Riff III:

D|----------------|------------------------------|--------------------------|
A|----------------|-----------------(first time)-|------------(second time)-| x2
F|----------------|------------------------------|--------------------------|
C|----------------|------------------------------|--------------------------|
G|-0000-000--0000-|-000-----------000------------|-0000-0000----------------|
C|-0000-000--0000-|-000-0-0-0-0-0-000-0-0-0-0-0--|-0000-0000-0h1-00-0h3-3-3-|
   .... ..   ....   ...   .   .   ...   .   .      ...  ....     ..


Outro:

D|--------------------------------------------------------------------------------|
A|--------------------------------------------------------------------------------|
F|--------------------------------------------------------------------------------|
C|--------------------------------------------------------------------------------|
G|-000--000--000-000----000--000-000-000----000--000-000-000--000-0-0-0-0-0-0-0-0-|
C|-000--000--000-000----000--000-000-000----000--000-000-000--000-0-0-0-0-0-0-0-0-|
   ***  ***  *** ***    ***  *** *** ***    ***  *** *** ***  ... * * * * * * * *

D|-----------------------------------------|
A|-----------------------------------------|
F|-----------------------------------------|
C|-----------------------------------------|
G|-000--000-000-000-0-0-0-0-0-0-0-0-0-0-0--|
C|-000--000-000-000-0-0-0-0-0-0-0-0-0-0-0--|
   ***  *** *** *** * * * * * * * * * * *





Comments


Popular Miss May I tabs & chords
In Recognition Chords
A Dance With Aera Cura Tabs
Apologies Are For The Weak 1 Tabs
Blessed By A Curse Tabs
Creations Tabs
Day By Day Tabs
Lullaby For A Beast Tabs
Monument 1 Tabs
Our Kings Tabs
Relentless Chaos 3 Tabs


Song lyrics



↑ Back to top | Tablatures and chords are parodies/interpretations of the original songs. You may use it for private study, scholarship, research or language learning purposes only
© 2014 AZChords.com Contact us | Privacy policy | DMCA | Add/correct tabs | Request tabs | Top 50 tabs