>
 >
Gears

Gears Guitar Tabs

Miss May I - Gears chords, tabs, tablatures, lyrics

Guitar lessons | Add/correct | Request | Top 50 tabs Artists:  A B C D E F G H I J K L M N O P Q R S T U V W X Y Z 0-9

Gears Guitar Tabs – Miss May I

CD, Sheet music, Poster

Do you like Gears? Share with your friends now
Tabs
[Gears]
[Monument]
[Miss May I]

Tuning: Drop C (CGCFAD/Drop D 1 Step Down)

[Riff 1a] - [00:00] - [00:47--------------------------------------| - [6x]
- ----------------------------------------------------------------|
- ----------------------------------------------------------------|
- -9h10p9---------------------------------------------------------|
- --------10-10/12------10h12p10---\7-7-------7/10----------------|
- -------------------------------------------------10-----10/12---|
- ----------------------------------------------------------------|

[Riff 1b] - [00:00] - [00:47--------------------------------------| - [6x]
- ----------------------------------------------------------------|
- ----------------------------------------------------------------|
- -12h14p12-------------------------------------------------------|
- ----------14-14/15----14h15p14---\10-10-----10/14---------------|
- --------------------------------------------------13----13/15---|
- ----------------------------------------------------------------|

[Riff 2] - [00:16] - [00:31---------------| - [2x]
- ----------------------------------------|
- ----------------------------------------|
- ----------------------------------------|
- -0-----------10--7-------5---------7----|
- -0-----------10--7-------5---------7----|
- -0-----------10--7-------5---------7----|

[Riff 3] - [00:31] - [00:47-----------------------------------------| - [2x]
- ------------------------------------------------------------------|
- ------------------------------------------------------------------|
- ------------------------------------------------------------------|
- ------------------------------------------------------------------|
- ------------------------------------------------------------------|
- -0---0-0-0-0-0-0-0-0-0-0-0-8-8-8-0---0-0-0-0-0-0-0-0-0-0-8-7-5-7--|
PM     .....................           ...................

- ------------------------------------------------------------------|
- ------------------------------------------------------------------|
- ------------------------------------------------------------------|
- ------------------------------------------------------------------|
- ------------------------------------------------------------------|
- -5---5-5-5-5-5-5-5-5-5-5-5-5-5-5-8---8-8-8-8-8-8-10--101010101010-|
PM     ...........................     ...........     ............

----------------------------------------------------------------------------

[Riff 4a] - [00:47] - [00:55]
- ----------------------------------------------------|
- ----------------------------------------------------|
- ----------------------------------------------------|
- -0~-----/7--5--7-7/10--8---0~-----/7--5-------------|
- -0~------------------------0~------------8-7---7/8--|
- -0~------------------------0~-----------------------|

[Riff 4b] - [00:47] - [00:55]
- ----------------------------------------------------|
- ----------------------------------------------------|
- ----------------------------------------------------|
- -0~------------------------0~-----------------------|
- -0~-----/8--7--8-8/12--10--0~-----/8--7--5-4---4/5--|
- -0~------------------------0~-----------------------|

----------------------------------------------------------------------------

[Riff 5, Guitar 1 & 2] - [00:55] - [00:59]
- -----------------------------------------------------------------|
- -----------------------------------------------------------------|
- -----------------------------------------------------------------|
- -----------------------------------------------------------------|
- -8-----------8---7-------4---5-------5---4-------5-------4-------|
- ---0-0-0-0-0---0---0-0-0---0---0-0-0---0---0-0-0---8-8-8---7-7-7-|
PM   .........   .   .....   .   .....   .   .....   .....   .....
-
- -----------------------------------------------------------------|
- -----------------------------------------------------------------|
- -------------------------------------------------3-------2-------|
- -0-----------------------0-0-0-0-0-----------------5-5-5---4-4-4-|
- -0-----------------------0-0-0-0-0-------------------------------|
PM .................................                 .....   .....

----------------------------------------------------------------------------

[Riff 6] - [00:59] - [01:02]
- -----------------------------------------------------------------|
- -----------------------------------------------------------------|
- -----------------------------------------------------------------|
- -----------------------------------------------------------------|
- -8-----------8---7-------4---5-------5---4-------5-------4-------|
- ---0-0-0-0-0---0---0-0-0---0---0-0-0---0---0-0-0---8-8-8---------|
PM   .........   .   .....   .   .....   .   .....   .....

----------------------------------------------------------------------------

[Riff 7, Guitar 1 & 2] - [01:02] - [01:10---------------------------| - [2x]
- ------------------------------------------------------------------|
- ------------------------------------------------------------------|
- ------------------------------------------------------------------|
- ------------------------------------------------------------------|
- -8-----------8---7-------4---5-------5---4-------5-------4--------|
- ---0-0-0-0-0---0---0-0-0---0---0-0-0---0---0-0-0---8-8-8---7-7-7--|
PM   .........   .   .....   .   .....   .   .....   .....   .....
-
- -----------------------------------------------------------------|
- -----------------------------------------------------------------|
- -----------------------------------------------------------------|
- -7-----------7---5-------------------------------3-------2-------|
- -------------------------7---8-------8---7---------5-5-5---2-2-2-|
- ---0-0-0-0-0---0---0-0-0---0---0-0-0---0---0-0-0-----------------|
PM   .........   .   .....   .   .....   .   .....   .....   .....

----------------------------------------------------------------------------

[Riff 8] - [01:10] - [01:18]
- -------------------------------------------------------------------|
- -------------------------------------------------------------------|
- -------------------------------------------------------------------|
- ----------------------------------------------------8-8------------|
- -8-----------8---10-----------10---12-----------1212----1212101212-|
- ---8-8-8-8-8---8----8-8-8-8-8----8----8-8-8-8-8--------------------|
PM   .........   .    .........    .    .........

- ------------------------------------------------------------------|
- ------------------------------------------------------------------|
- ------------------------------------------------------------------|
- --------------------------------------------------10108-8-7-7-8-8-|
- -7-----------7---8-----------8---10-----------1010----------------|
- ---7-7-7-7-7---7---7-7-7-7-7---7----7-7-7-7-7---------------------|
PM   .........   .   .........   .    .........

----------------------------------------------------------------------------

[Riff 9] - [01:18] - [01:34]
- -------------------------------------------------------------------------|
- -------------------------------------------------------------------------|
- -------------------------------------------------------------------------|
- -------------------------------------------------------------------------|
- -0000--0000----00000-0---------------------------------------------------|
- -0000--0000----00000-0/8--7--5---5555----555555/8--7--5-3--5--2---222h3--|
PM .....................           ...     ......

- -------------------------------------------------------------------------|
- -------------------------------------------------------------------------|
- -------------------------------------------------------------------------|
- -------------------------------------------------------------------------|
- -0000----------00000-0---------------------------------------------------|
- -0000--0v------00000-0/8--7--5---5555----555555/8--7--5-3--5--2---222h3--|
PM ....          .......           ...     ......

[Riff 10a] - [01:34] - [01:49-----------------------------------------------| - [2x]
- --------------------------------------------------------------------------|
- --------------------------------------------------------------------------|
- --------------------------------------------------------------------------|
- --------------------------------------------------------------------------|
- -0000--0000----00000-0----------------------------------------------------|
- -0000--0000----00000-0/8--7--5---5555----555555/8--7--5-3--5--2---222h3---|
PM .....................           ...     ......

[Riff 10b] - [01:34] - [01:49-----------------------------------------------| - [2x]
- --------------------------------------------------------------------------|
- --------------------------------------------------------------------------|
- --------------------------------------------------------------------------|
- --------------------------------------------------------------------------|
- -0000--0000----00000-0----------------------------------------------------|
- -0000--0000----00000-0/12-10-8---8888----888888/12-10-8-7--8--5---555h7---|
PM .....................           ...     ......

----------------------------------------------------------------------------

[Riff 11] - [01:49] - [01:53]
- -----------------|
- -----------------|
- -----------------|
- -0~--------------|
- -0~--------------|
- -0~----------12\-|

----------------------------------------------------------------------------

[Riff 12] - [01:53] - [02:24--------------------------------------------| - [2x]
- ----------------------------------------------------------------------|
- ----------------------------------------------------------------------|
- ----------------------------------------------------------------------|
- ----------------------------------------------------------------------|
- ----------------------------------------------------------------------|
- -0(16x)-7(16x)-8(16x)-5(12x)-1(4x)-0(16x)-3(16x)-5(16x)-2(12x)-3(4x)--|

palm mute second time through

----------------------------------------------------------------------------

[Riff 13] - [02:24] - [02:32----------------------------------------| - [2x]
- ------------------------------------------------------------------|
- ------------------------------------------------------------------|
- ------------------------------------------------------------------|
- ------------------------------------------------------------------|
- -0000----0000----0-0-0-0-0000--------0000--------0-0-0-0-0000-----|
- -0000----0000----0-0-0-0-0000--------0000--------0-0-0-0-0000-----|
PM ............................................................

[Riff 14, Guitar 1 & 2] - [02:32] - [02:40]
- -----------------------------------------------------------------|
- -----------------------------------------------------------------|
- -----------------------------------------------------------------|
- -----------------------------------------------------------------|
- -0000----0000----0-0-0-0-0-----------0000--------0-0-0-0-0-------|
- -0000----0000----0-0-0-0-0-0---------0000--------0-0-0-0-0-0-----|
PM .........................           .....................
-
- -----------------------------------------------------------------|
- -----------------------------------------------------------------|
- -----------------------------------------------------------------|
- -----------------------------------------------------------------|
- -0000----0000----0-0-0-0-0-----------0000--------0-0-0-0-0-------|
- -0000----0000----0-0-0-0-0-0---------0000--------0-0-0-0-0-0-----|
PM .........................           .....................


- -----------------------------------------------------------------|
- -----------------------------------------------------------------|
- -----------------------------------------------------------------|
- -----------------------------------------------------------------|
- -0000----0000----0-0-0-0-0-----------0000--------0-0-0-0-0-------|
- -0000----0000----0-0-0-0-0-3---------0000--------0-0-0-0-0-3-----|
PM .........................           .....................
-
- -----------------------------------------------------------------|
- -----------------------------------------------------------------|
- -----------------------------------------------------------------|
- -----------------------------------------------------------------|
- -0000----0000----0-0-0-0-0-----------0000--------0-0-0-0-0-------|
- -0000----0000----0-0-0-0-0-0---------0000--------0-0-0-0-0-0-----|
PM .........................           .....................

----------------------------------------------------------------------------

[Riff 15] - [02:40] - [02:41]
- ---------|
- ---------|
- ---------|
- ---------|
- -0-------|
- -0-------|
PM .

----------------------------------------------------------------------------

[Riff 13] - [02:41] - [02:49] - [2x]

[Riff 16] - [02:49] - [02:57]
- -----------------|
- -----------------|
- -----------------|
- -0---5---10--7---|
- -0---3---8---5---|
- -0---3---8---5---|

----------------------------------------------------------------------------

[Riff 17] - [02:57] - [03:12]
- -----------------------------------------------------------------|
- -----------------------------------------------------------------|
- -----------------------------------------------------------------|
- -----------------------------------------------------------------|
- -0-0-0-0-0-0---------0-0-----0-0-----3-3-3-3-3-3-3-3-3-3-3-3-3-3-|
- -0-0-0-0-0-0---------0-0-----0-0-----3-3-3-3-3-3-3-3-3-3-3-3-3-3-|
PM ...............................................................

- -----------------------------------------------------------------|
- -----------------------------------------------------------------|
- -----------------------------------------------------------------|
- -----------------------------------------------------------------|
- -8-8-8-8-8-8---------8-8-----8-8-----5-5-5-5-5-5-5-5-5-5-5-5-5-5-|
- -8-8-8-8-8-8---------8-8-----8-8-----5-5-5-5-5-5-5-5-5-5-5-5-5-5-|
PM ...............................................................

- -----------------------------------------------------------------|
- -----------------------------------------------------------------|
- -----------------------------------------------------------------|
- -----------------------------------------------------------------|
- -0-0-0-0-0-0---------0-0-----0-0-----3-3-3-3-3-3-3-3-3-3-3-3-3-3-|
- -0-0-0-0-0-0---------0-0-----0-0-----3-3-3-3-3-3-3-3-3-3-3-3-3-3-|
PM ...............................................................

- -----------------------------------------------------------------|
- -----------------------------------------------------------------|
- -----------------------------------------------------------------|
- -------------------------------------------------8-------8-------|
- -8-8-8-8-8-8---------8-8-----8-8-----5-5-5-5-5-5-5-------5-------|
- -8-8-8-8-8-8---------8-8-----8-8-----5-5-5-5-5-5-5-------5-------|
PM ...............................................

----------------------------------------------------------------------------

[Riff 18] - [03:12] - [03:36----------------------------------------| - [3x]
- ------------------------------------------------------------------|
- ------------------------------------------------------------------|
- ------------------------------------------------------------------|
- ------------------------------------------------------------------|
- ------------------------------------------------------------------|
- -0-0-0-0-0-0---------0-0-----0-0-----3-3-3-3-3-3-3-3-3-3-3-3-3-3--|

- -----------------------------------------------------------------|
- -----------------------------------------------------------------|
- -----------------------------------------------------------------|
- -----------------------------------------------------------------|
- -----------------------------------------------------------------|
- -8-8-8-8-8-8---------8-8-----8-8-----5-5-5-5-5-5-5-5-5-5-5-5-5-5-|

[Riff 16] - [03:36] - [04:02] - [2x]

----------------------------------------------------------------------------

[Symbols]

h     Hammer On
p     Pull Off
/     Slide Up
\     Slide Down
PM... Palm Mute notes with (...) under them
~     Let Ring
( x)  Play x amount of times

:)





Comments


Popular Miss May I tabs & chords
Relentless Chaos Bass Tabs
Arms Of The Messiah Tabs
Blessing With A Curse Tabs
Colossal Tabs
Harlots Breath 2 Tabs
Harlots Breath Intro Tabs
Live This Life Intro Tabs
Relentless Chaos 2 Tabs
Sirens Song Tabs
In Recognition Ukulele


Song lyrics



↑ Back to top | Tablatures and chords are parodies/interpretations of the original songs. You may use it for private study, scholarship, research or language learning purposes only
© 2014 AZChords.com Contact us | Privacy policy | DMCA | Add/correct tabs | Request tabs | Top 50 tabs