» » »

Miss May I, Forgive And Forget Tabs (ver.4)

Artists:  A B C D E F G H I J K L M N O P Q R S T U V W X Y Z # 

Forgive And Forget Tabs (ver.4)

Miss May I Tabs
 Rating:
4/5 (10 votes)
Forgive And Forget lessons Tabs too difficult? Try these video lessons and learn fast
1
                Hey this is one of my first tabs of another song so im new to this... i think 
youll know what the symbols mean. good luck

Forgive and Forget- Miss May I
Tuning(CGCFAD)

|------------------------------------------------|
|------------------------------------------------|
|------------------------------------------------|x4
|------------------------------------------------|
|------------------------------------------------|
|--0"---8"-7"-4"----5"---1"-4"-0"-12"-0"-10"-----|


|------------------------------------|
|------------------------------------|
|------------------------------------|x8
|------------------------------------|
|------------------------------------|
|---8-00-7-00-4p0-0-0-0000-0-0-0000--|
      ..   ..     . . .... . . ....


|---------------------------|
|---------------------------|
|---------------------------|x8
|---------------------------|
|-0-000--000--000-0-000-000-|
|-0-000--000--000-0-000-000-|
  . ...  ...  ... . ... ...


|----------------------------------------------|
|----------------------------------------------|
|----------------------------------------------|x5
|----------------------------------------------|
|----8-8---8-8---8-88---12-12--10-10--10-10-10-|
|-00--0--00-0--00-0---88--8--88--8--88--8------|
  ..  .  .. .  .. .   ..  .  ..  .  ..  .


|------------------------------------------------------|
|------------------------------------------------------|
|------------------------------------------------------|x4
|------------------------------------------------------|
|--0000000000000000-88888888888888-101010101010101010--|
|--0000000000000000-88888888888888-101010101010101010--|


||-------------------------------------||--1st---|-----2nd----|
||-------------------------------------||--------|------------|
||-----------------------------------x2||--------|---------10-|
||-------------------------------------||--------|------10----|
||-0--------------------0--------------||------0-|----8-------|
||-0-000000000000-0-0-0-0-000000000000-||--8p5-0-|--8---------|
     ............ .   .   ............         .


|------------------------------------------------------|
|------------------------------------------------------|
|--------10--------------------------------------------|
|------10-------10------10--------10------12-------12--|
|----8--------8-------8---------8------10-------10-----|
|--8--------8------10-------7-7------8-------10--------|

|------------|
|------------|
|------------|
|------10~---|
|----8~----0-|
|--8~------0-|
           .


||-----------------------------------------------------------------|
||-----------------------------------------------------------------|
||-----------------------------------------------------------------|
||-----------------------------------------------------------------|
||-0-0-0-0-0-0-0-0-0-0-0-0-0-0-0-0-000-000-000-000-000-000-000-000-|
||-1-1-1-1-1-1-1-1-1-1-1-1-1-1-1-1-111-111-111-111-111-111-111-111-|
   . . . . . . . . . . . . . . . . ... ... ... ... ... ... ... ...

|-------------------||----1st---|----2nd---|
|-------------------||----------|----------|
|-----------------x2||----------|----------|
|-------------------||----------|----------|
|--00--0-0-0-0--00--||--0-0-0-0-|--000-000-|
|--00--0-0-0-0--00--||--0-0-0-0-|--000-000-|
   ..  . . . .  ..      . . . .    ... ...


|------------------------------------------------|
|------------------------------------------------|
|------------------------------------------------|
|--0~----7~----12~---777777777-77777777777777777-|
|--10~---7~----10~---888888888-77777777777777777-|
|--8~----7~----10~---777777777-77777777777777777-|


||-------------------------------------------------|
||-------------------------------------------------|
||-------------------------------------------------|
||--0000000000000000000------7-7-7-----7-7-7-7-7-7-|
||--0000000000000000000--000-8-8-8-000-8-8-8-8-7-7-|
||--0000000000000000000--000-7-7-7-000-7-7-7-7-7-7-|
                         ...       ...
|-------------------------------------------------------------||
|-------------------------------------------------------------||
|-------------------------------------------------------------||x2
|--0-0-0-0-0-0-0-0-0-0-0-0-0-0-0--------7-7-7-----7-7-7-7-7-7-||
|--101010101010101010101010101010---000-8-8-8-000-8-8-8-8-7-7-||
|--8-8-8-8-8-8-8-8-8-8-8-8-8-8-8----000-7-7-7-000-7-7-7-7-7-7-||
                                    ...       ...


|-------|
|-------|
|-------|
|---0~--|
|---8~--|
|---7~--|

THE END...
please rate and comment
            
Submit corrections

comments powered by Disqus
↑ Back to top | Miss May I Tabs for Forgive And Forget. Lyrics for acoustic guitar and electric guitar. 1 Tablatures and chords are parodies/interpretations of the original songs. You may use it for private study, scholarship, research or language learning purposes only