>
 >
Forgive And Forget 1

Forgive And Forget 1 Guitar Tabs

Miss May I - Forgive And Forget 1 chords, tabs, tablatures, lyrics

Guitar lessons | Add/correct | Request | Top 50 tabs Artists:  A B C D E F G H I J K L M N O P Q R S T U V W X Y Z 0-9

Forgive And Forget 1 Guitar Tabs – Miss May I

CD, Sheet music, Poster

Do you like Forgive And Forget 1? Share with your friends now
TabsTabs v2Tabs v3Tabs v4Tabs v5Tabs v6
Miss May I-Forgive and Forget
Apologies Are For The Weak
Tuning - Drop C (CGCFAD)

This is my first tab ever, so if you see any errors or if im playing something wrong 
me and ill fix it, but I think this is very close.
Well Enjoy!


Intro x4
D|-----------------------|
A|-----------------------|
F|-----------------------| (Tremolo
C|-----------------------|  Picking)
G|-----------------4-1---|
C|-0-8-7-4-5-1-4-1--0----|

Verse I x4
D|--------------------------------------------------------|
A|--------------------------------------------------------|
F|--------------------------------------------------------|
C|--------------------------------------------------------|
G|--------------------------------------------------------|
C|0-0-8-0-7-0-4-00-4-00-400-500-1-004-00-1-00-1-00-1---|
  * *   *   *   **   **   **   **   **   **   **   **
Breakdown I x4
D|---------------------------|
A|---------------------------|
F|---------------------------|
C|---------------------------|
G|-0-000--000--000-0-000-000-|
C|-0-000--000--000-0-000-000-|
   * ***  ***  *** * *** ***
Verse II x5
D|---------------------------------------------------|
A|---------------------------------------------------|
F|---------------------------------------------------| (Alternate
C|---------------------------------------------------|  Picking)
G|---8---8----8---8---8----12---12----10----10---10--|
C|00---0---00--00---0---88----8----77----77----7-----|
  **   *   **  **   *   **    *    **    **    *
Pre chorus x4
D|--------------|
A|--------------|
F|--------------| (Let Ring)
C|--------------|
G|-0----8--10---|
C|-0----8--10---|

Breakdown II
D|--------------------------------------------------------|
A|--------------------------------------------------------|
F|--------------------------------------------------------|
C|0----------0-0----------------0----------0-0------------|
G|0-00000000-0-0-00000000-------0-00000000-0-0-00000000-0-|
C|0-00000000-0-0-00000000-0-1h4-0-00000000-0-0-00000000-0-|
    ********     ******** *       ********     ******** *
Chorus x4
D|-----------------------------------|
A|-----------------------------------|
F|-----------------------------------|
C|-0-0000---8888-10101010-10101010---|
G|-0-0000---8888-10101010-10101010---|
C|-0-0000---8888-10101010-10101010---|
   * ****   **** * * * *  * * * *
Breakdown III
D|---------------------------------------------------------------------|
A|---------------------------------------------------------------------|
F|---------------------------------------------------------------------|
C|---------------------------------------------------------------------|
G|-0-0-0-0-0-0-0-0-0-0-0-0-0-0-0-0--00000000000000000000000000000000---|
C|-1-1-1-1-1-1-1-1-1-1-1-1-1-1-1-1--11111111111111111111111111111111---|
   * * * * * * * * * * * * * * * *  ********************************
D|-------------------------------|
A|-------------------------------|
F|-------------------------------|
C|-------------------------------|
G|--0-0--0-0-0-0--0-0--0-0-0-0---|
C|--0-0--0-0-0-0--0-0--0-0-0-0---|

D|---------------------------------------------------------------------|
A|---------------------------------------------------------------------|
F|---------------------------------------------------------------------|
C|---------------------------------------------------------------------|
G|-0-0-0-0-0-0-0-0-0-0-0-0-0-0-0-0--00000000000000000000000000000000---|
C|-1-1-1-1-1-1-1-1-1-1-1-1-1-1-1-1--11111111111111111111111111111111---|
   * * * * * * * * * * * * * * * *  ********************************
D|------------------------------|
A|------------------------------|
F|------------------------------|
C|------------------------------|
G|--0-0--0-0-0-0--0-0--000000---|
C|--0-0--0-0-0-0--0-0--000000---|

Outro
D|-----------------------------------|
A|-----------------------------------|
F|-----------------------------------|
C|-----------------------------------|
G|-8~~~8~7~~~10~~~8888888877777777---|
C|--~--------------------------------|

D|--------------------------------------------|
A|--------------------------------------------|
F|--------------------------------------------|
C|-0000000000000000-0-0-0-----0-0-0-----0-0---|
G|-0000000000000000-0-0-0-777-0-0-0-777-0-0-7-|
C|------------------0-0-0-----0-0-0-----0-0---|
                    * * *     * * *     * *
D|----------------------------------------------|
A|----------------------------------------------|
F|----------------------------------------------|
C|-8888888888888888-0-0-0-----0-0-0------0-0----|
G|-8888888888888888-0-0-0-888-0-0-0--888-0-0--8-|
C|-8888888888888888-0-0-0-----0-0-0------0-0----|
                    * * *     * * *      * *
D|--------------------------------------------|
A|--------------------------------------------|
F|--------------------------------------------|
C|-0000000000000000-0-0-0-----0-0-0-----0-0---|
G|-0000000000000000-0-0-0-777-0-0-0-777-0-0-7-|
C|------------------0-0-0-----0-0-0-----0-0---|
                    * * *     * * *     * *
D|------------------------------------------------||
A|------------------------------------------------||
F|------------------------------------------------||
C|-8888888888888888-0-0-0-----0-0-0---------------||
G|-8888888888888888-0-0-0-888-0-0-0--8-88-88-88-8-||
C|-8888888888888888-0-0-0-----0-0-0---------------||
                    * * *     * * *





Comments


Popular Miss May I tabs & chords
Relentless Chaos 2 Bass Tabs
Swing 2 Bass Tabs
Blessed By A Curse Tabs
Colossal Tabs
Forgive And Forget 3 Tabs
Live This Life Intro Tabs
Masses Of A Dying Breed 1 Tabs
My Hardship Tabs
Relentless Chaos 1 Tabs
Relentless Chaos 3 Tabs


Song lyrics



↑ Back to top | Tablatures and chords are parodies/interpretations of the original songs. You may use it for private study, scholarship, research or language learning purposes only
© 2014 AZChords.com Contact us | Privacy policy | DMCA | Add/correct tabs | Request tabs | Top 50 tabs