>
 >
Forgive And Forget

Forgive And Forget Guitar Tabs

Miss May I - Forgive And Forget chords, tabs, tablatures, lyrics

Guitar lessons | Add/correct | Request | Top 50 tabs Artists:  A B C D E F G H I J K L M N O P Q R S T U V W X Y Z 0-9

Forgive And Forget Guitar Tabs – Miss May I

CD, Sheet music, Poster

Do you like Forgive And Forget? Share with your friends now
TabsTabs v2Tabs v3Tabs v4Tabs v5Tabs v6
Miss May I: Forgive and Forget

Tunning: Drop C

h = hammer on
~ = Let ring
* = Palm mute
" = Tremolo pick




After drum intro

Gtr. 1 & 2

D|--------------------------------|
A|--------------------------------| 
F|--------------------------------|
C|--------------------------------|
G|----------------------4"----1"--|
C|-0"-8"-7"-4"-5"-4"-1"----0"-----|


Gtr. 2
D|------------------------------------------|
A|------------------------------------------|
F|------------------------------------------|
C|------------------------------------------|
G|---------------------------8"----1"-------|
C|-0"-12"-10"-7"-8"-4"-7"-4"----0"----------|


Verse


Gtr. 1 & 2 

D|-------------------------------------------------------------------------|
A|-------------------------------------------------------------------------|
F|-------------------------------------------------------------------------|
C|-------------------------------------------------------------------------|
G|-------------------------------------------------------------------------|
C|0--00-8-0-7-0-4-00-4-00-4-00-5-00-1-0-4-0-1-00-1-00-1--------------------|
     **   *   *   **   **   **   **   *   *   **   **
D|-------------------------------------------------------------------------|
A|-------------------------------------------------------------------------|
F|-------------------------------------------------------------------------|
C|-------------------------------------------------------------------------|
G|-------------------------------------------------------1h4---------------|
C|0--00-8-0-7-0-4-00-4-00-4-00-5-00-1-0-4-0-1-00-1-00-1h4------------------|
     **   *   *   **   **   **   **   *   *   **   **


Gtr. 2 
D|-------------------------------------------------------------------------|
A|-------------------------------------------------------------------------|
F|-------------------------------------------------------------------------|
C|-------------------------------------------------------------------------|
G|-------------------------------------------------------------------------|
C|0--00-12-0-10-0-7-00-7-00-7-00-8-00-4-0-7-0-4-00-4-00-4------------------|
     **    *    *   **   **   **   **   *   *   **   **
D|-------------------------------------------------------------------------|
A|-------------------------------------------------------------------------|
F|-------------------------------------------------------------------------|
C|-------------------------------------------------------------------------|
G|-----------------------------------------------------------4h7-----------|
C|0--00-12-0-10-0-7-00-7-00-7-00-8-00-4-0-7-0-4-00-4-00-4-4h7--------------|
     **    *    *   **   **   **   **   *   *   **   **


Breakdown 1


Gtr.1
D|----------------------------------------------------|
A|----------------------------------------------------|
F|----------------------------------------------------|
C|----------------------------------------------------|
G|-------------------------4"---1"--------------------|
C|-0"-8"-7"-4"-5"-1"-4"-1"---0"-----------------------|


Gtr. 2
D|--------------------------------|
A|--------------------------------|
F|--------------------------------|
C|--------------------------------|
G|-0-0000--0000--0000-0-0000-0000-|
C|-0-0000--0000--0000-0-0000-0000-|
   * ****  ****  **** * **** ****
D|----------|
A|----------|
F|----------|
C|----------|
G|-0--------|
C|-0--------|
   * 



Verse 2



Gtr. 1
D|-------------------------------------------------------------------------|
A|-------------------------------------------------------------------------|
F|-------------------------------------------------------------------------| 
C|-------------------------------------------------------------------------| 
G|---8---8----8---8----8---8-------12---12------10----10------10-----10----|
C|00---0---00---0---00---0--0---88----8----1010----10----1010----10-----10-|
  **   *   **   *   **   *  *   **    *    *  *     *     * *     *      *


Gtr. 2
D|--------------------------------------------------------------------------|
A|--------------------------------------------------------------------------|
F|--------------------------------------------------------------------------|
C|--------------------------------------------------------------------------|
G|------------------0-0-0-0----8~--------10~--------------------------------|
C|------------------0-0-0-0----8~--------10~--------------------------------|
                    * * * *

Gtr. 1 & 2
D|-------------------------------------------------------------------------|
A|-------------------------------------------------------------------------|
F|-------------------------------------------------------------------------| 
C|-------------------------------------------------------------------------| 
G|---8---8----8---8----8---8-------12---12------10----10------10-----10----|
C|00---0---00---0---00---0--0---88----8----1010----10----1010----10-----10-|
  **   *   **   *   **   *  *   **    *    *  *     *     * *     *      *

Gtrs 1 plays this every other time
D|-------------------------------------------------------------------------|
A|-------------------------------------------------------------------------|
F|-------------------------------------------------------------------------| 
C|-------------------------------------------------------------------------| 
G|---8---8----8---8----8---8-------12---12------7-----7--------7-----7-----|
C|00---0---00---0---00---0--0---88----8----1010----10----1010----10-----10-|
  **   *   **   *   **   *  *   **    *    *  *     *     * *     *      *


Pre-chorus

Gtr. 1
D|-------------------------------------------------------------------------|
A|-------------------------------------------------------------------------|
F|-------------------------------------------------------------------------|
C|-------------------------------------------------------------------------|
G|0~-------8~---------10~--------------------------------------------------|
C|0~-------8~---------10~---------------------------------------------------|

Gtr. 2
D|-------------------------------------------------------------------------|
A|------6~--------1~----------5~-------------------------------------------|
F|----5~-------------------------------------------------------------------|
C|--3~---------3~---------5~-----------------------------------------------|
G|5~-------1~---------/3~--------------------------------------------------|
C|-------------------------------------------------------------------------|


Gtr. 1
D|---------------------------------------------------------------------|
A|---------------------------------------------------------------------|
F|---------------------------------------------------------------------|
C|---------------------------------------------------------------------|
G|-------------------------------------------------------------------0-|
C|0-000000000000-0-0-0-00000004787810-0-0000000000-0-0-0--0-0-0-0-0--0-|
    ************   *   ************     **********   *    * * * * *

Gtr. 2
D|--------------------------------------------------------------------------|
A|------------------------------------------------------------------------5~|
F|----------------------------------------------------------------------5~--|
C|--------------------------------------------------------------------5~----|
G|------------------------------------------------------------------3~------|
C|0-000000000000-0-0-0-0000000145457-0-0000000000-0-0-0--0-0-0-0-0----------|
    ************   *   ************    **********   *    * * * * *


Chorus


Gtr. 1
D|----------------------------------|
A|----------------------------------|
F|----------------------------------|
C|----------------------------------|
G|-0-0000--8888--10101010--10101010-|
C|-0-0000--8888--10101010--10101010-|
   * ****  ****  * * * *   * * * *

Gtr. 2
D|----------------------------------|
A|------6~--------1~----------5~----|
F|----5~----------------------------|
C|--3~---------3~---------5~--------|
G|5~-------1~---------/3~-----------|
C|----------------------------------|

D|-----------|
A|---------6~|
F|-------5~--|
C|----3~-----|
G|-5~--------|
C|-----------|



Breakdown 2

D|---------------------------------------------------------------------|
A|---------------------------------------------------------------------|
F|---------------------------------------------------------------------|
C|---------------------------------------------------------------------|
G|-0-0-0-0-0-0-0-0-0-0-0-0-0-0-0-0--00000000000000000000000000000000---|
C|-1-1-1-1-1-1-1-1-1-1-1-1-1-1-1-1--11111111111111111111111111111111---|
   * * * * * * * * * * * * * * * *  ********************************
D|-------------------------------|
A|-------------------------------|
F|-------------------------------|
C|-------------------------------|
G|--0-0--0-0-0-0--0-0--0-0-0-0---|
C|--0-0--0-0-0-0--0-0--0-0-0-0---|
    * *  * * * *  * *  * * * *
D|---------------------------------------------------------------------|
A|---------------------------------------------------------------------|
F|---------------------------------------------------------------------|
C|---------------------------------------------------------------------|
G|-0-0-0-0-0-0-0-0-0-0-0-0-0-0-0-0--00000000000000000000000000000000---|
C|-1-1-1-1-1-1-1-1-1-1-1-1-1-1-1-1--11111111111111111111111111111111---|
   * * * * * * * * * * * * * * * *  ********************************
D|------------------------------|
A|------------------------------|
F|------------------------------|
C|------------------------------|
G|--0-0--0-0-0-0--0-0--000000---|
C|--0-0--0-0-0-0--0-0--000000---|
    * *  * * * *  * *  ******


Ending

Gtr. 1
D|-------------------------------------------------------------------------|
A|-------------------------------------------------------------------------|
F|10~----9~----12~----10~-10-/-9~------------------------------------------|
C|-x-----x-----x------x---x----x-------------------------------------------|
G|-8~----7~----10~----8~--8--/-7~------------------------------------------|
C|-------------------------------------------------------------------------|

Gtr. 2
D|------------------------------------------------------------------------|
A|------------------------------------------------------------------------|
F|------------------------------------------------------------------------|
C|------------------------------------------------------------------------|
G|-0~--0~----8~---8~---10~------------------------------------------------|
C|-0~--0~----8~---8~---10~------------------------------------------------|



Gtr. 1

I know the strumming isn't exactly correct but its easy to figure out....
D|-------------------------------------------------------------------------|
A|-------------------------------------------------------------------------|
F|--10-10-10-10-10-10-10-10-10-10--------12-12-12------12-12-12------12----|
C|---x--x--x--x--x-x--x--x--x--x---------x--x--x--------x--x--x-------x----|
G|---8--8--8--8--8-8--8--8--8--8---0-0-0-10-10-10-0-0-0-10-10-10-0-0-10-0--|
C|---------------------------------0-0-0----------0-0-0----------0-0----0--|
                                   * * *          * * *          * *    *
D|-------------------------------------------------------------------------|
A|-------------------------------------------------------------------------|
F|-12-12--12--12--12--12--12--12---------10-10-10------10-10-10---9-9-9----|
C|-x---x----x--x---x---x---x---x-----------x-x-x--------x-x-x-----x-x-x----|
G|-10--10--10--10--10--10--10--10---0-0-0--8-8-8-0-0-0--8-8-8--0--7-7-7----|
C|----------------------------------0-0-0--------0-0-0---------0-----------|
                                    * * *        * * *         *   
D|-------------------------------------------------------------------------|
A|-------------------------------------------------------------------------|
F|-10-10-10-10-10-10-10-10-10-10--------121212--------121212------12-------|
C|-x--x--x--x--x--x--x--x--x--x----------x-x-x---------x-x-x------x--------|
G|-8--8--8--8--8--8--8--8--8--8---0-0-0--101010--0-0-0-101010-0-0-10-0-----|
C|--------------------------------0-0-0----------0-0-0--------0-0----0-----|
                                  * * *          * * *        * *    *
D|-------------------------------------------------------------------------|
A|-------------------------------------------------------------------------|
F|-12-12--12---12--12--12--12--12---------10-10-10------10-10-109-9-9-10~--|
C|-x---x---x---x---x---x---x----x----------x-x-x---------x-x-x--x-x-x-x----|
G|-10--10--10--10--10--10--10--10---0-0-0--8-8-8--0-0-0--8-8-8--7-7-7-8~---|
C|----------------------------------0-0-0---------0-0-0--------------------|
                                    * * *         * * *

Gtr. 2
D|-------------------------------------------------------------------------|
D|-------------------------------------------------------------------------|
A|-------------------------------------------------------------------------|
F|---------------------------------------9--9--9--------9--9--9-------9----|
C|---------------------------------------x--x--x--------x--x--x-------x----|
G|-0--0--0--0--0--0--0--0--0--0----0-0-0-7--7--7--0-0-0-7--7--7--0-0--7-0--|
C|-0--0--0--0--0--0--0--0--0--0----0-0-0----------0-0-0----------0-0----0--|
                                   * * *          * * *          * *    *
D|------------------------------------------------------------------------|
A|------------------------------------------------------------------------|
F|--------------------------------------7--7--7--------7--7--7------7-----|
C|--------------------------------------x--x--x--------x--x--x------x-----|
G|-8--8--8--8--8--8--8--8--8------0-0-0-5--5--5-0-0-0--5--5--5-0-0--5-0---|
C|-8--8--8--8--8--8--8--8--8------0-0-0---------0-0-0----------0-0----0---|
                                  * * *         * * *          * *    *  
D|-------------------------------------------------------------------------|
A|-------------------------------------------------------------------------|
F|---------------------------------------9--9--9--------9--9--9-------9----|
C|---------------------------------------x--x--x--------x--x--x-------x----|
G|-0--0--0--0--0--0--0--0--0--0----0-0-0-7--7--7--0-0-0-7--7--7--0-0--7-0--|
C|-0--0--0--0--0--0--0--0--0--0----0-0-0----------0-0-0----------0-0----0--|
                                   * * *          * * *          * *    *
D|------------------------------------------------------------------------|
A|------------------------------------------------------------------------|
F|-----------------------------------7--7--7-------7--7--7--7--7--7--7----|
C|-----------------------------------x--x--x-------x--x--x--x--x--x--x----|
G|-8--8--8--8--8--8--8--8--8---0-0-0-5--5--5-0-0-0-5--5--5--5--5--5--5-0~-|
C|-8--8--8--8--8--8--8--8--8---0-0-0---------0-0-0---------------------0~-|
                               * * *         * * *          





Comments


Popular Miss May I tabs & chords
Architect 1 Tabs
Ballad Of A Broken Man Tabs
Creations Tabs
Day By Day Tabs
Day By Day 1 Tabs
Forgive And Forget 5 Tabs
In Recognition Tabs
Masses Of A Dying Breed Tabs
My Hardship Tabs
Our Kings Tabs


Song lyrics



↑ Back to top | Tablatures and chords are parodies/interpretations of the original songs. You may use it for private study, scholarship, research or language learning purposes only
© 2014 AZChords.com Contact us | Privacy policy | DMCA | Add/correct tabs | Request tabs | Top 50 tabs