>
 >
Creations

Creations Guitar Tabs

Miss May I - Creations chords, tabs, tablatures, lyrics

Guitar lessons | Add/correct | Request | Top 50 tabs Artists:  A B C D E F G H I J K L M N O P Q R S T U V W X Y Z 0-9

Creations Guitar Tabs – Miss May I

CD, Sheet music, Poster

Do you like Creations? Share with your friends now
Tabs
[Creations]
[Monument]
[Miss May I]

Tuning: Drop C (CGCFAD/Drop D Down 1 Step)

[Riff 1, Guitar 1 & 2] - [00:00] - [00:09]
- -----------------------------------------------------------------|
- -----------------------------------------------------------------|
- -----------------------------------------------------------------|
- ---------------5-------------------------------5-----------------|
- -8-----7---8---------8---7---8---8-----7---8---------8---7---5---|
- ---0-0---0---0---0-0---0---0---0---0-0---0---0---0-0---0---0---0-|
PM   ...   .   .   ...   .   .   .   ...   .   .   ...   .   .   .
-
- -----------------------------------------------------------------|
- -----------------------------------------------------------------|
- -----------------------------------------------------------------|
- -0~--------------------------------------------------------------|
- -0~--------------------------------------------------------------|
- -0~--------------------------------------------------------------|


- -----------------------------------------------------------------|
- -----------------------------------------------------------------|
- -----------------------------------------------------------------|
- -----------------------------------------------------------------|
- -5-----5-----5---5-----5-----5---8-----8-----8---7-----7-----7---|
- ---8-8---8-8---8---8-8---8-8---8---5-5---5-5---5---5-5---5-5---5-|
PM   ...   ...   .   ...   ...   .   ...   ...   .   ...   ...   .
-
- -----------------------------------------------------------------|
- -----------------------------------------------------------------|
- -----------------------------------------------------------------|
- -8~-----------------------------\8---------------8-8-8-8-7~------|
- -8~-----------------------------\5---------------5-5-5-5-5~------|
- -8~-----------------------------\5---------------5-5-5-5-5~------|

----------------------------------------------------------------------------

[Riff 2a] - [00:09] - [00:27]
- -----------------------------------------------------------------|
- -----------------------------------------------------------------|
- -----------------------------------------------------------------|
- ---------------5-------------------------------5-----------------|
- -8-----7---8---------8---7---8---8-----7---8---------8---7---5---|
- ---0-0---0---0---0-0---0---0---0---0-0---0---0---0-0---0---0---0-|
PM   ...   .   .   ...   .   .   .   ...   .   .   ...   .   .   .

- -----------------------------------------------------------------|
- -----------------------------------------------------------------|
- -----------------------------------------------------------------|
- -----------------------------------------------------------------|
- -5-----5-----5---5-----5-----5---8-----8-----8---7-----7-----7---|
- ---8-8---8-8---8---8-8---8-8---8---5-5---5-5---5---5-5---5-5---5-|
PM   ...   ...   .   ...   ...   .   ...   ...   .   ...   ...   .

- -----------------------------------------------------------------|
- -----------------------------------------------------------------|
- -----------------------------------------------------------------|
- ---------------5-------------------------------5-----------------|
- -8-----7---8---------8---7---8---8-----7---8---------8---7---5---|
- ---0-0---0---0---0-0---0---0---0---0-0---0---0---0-0---0---0---0-|
PM   ...   .   .   ...   .   .   .   ...   .   .   ...   .   .   .

- -----------------------------------------------------------------|
- -----------------------------------------------------------------|
- -----------------------------------------------------------------|
- -----------------------------------------------------------------|
- -5-----5-----5---5-----5-----5---8-----8-----8---7-----7-----7---|
- ---8-8---8-8---8---8-8---8-8---8---5-5---5-5---5---5-5---5-5---5-|
PM   ...   ...   .   ...   ...   .   ...   ...   .   ...   ...   .


[Riff 2b] - [00:09] - [00:27]
- -----------------------------------------------------------------|
- -----------------------------------------------------------------|
- -----------------------------------------------------------------|
- -7-----5---7---8-----7---5---7---7-----5---7---8-----7---5-------|
- -------------------------------------------------------------8---|
- ---0-0---0---0---0-0---0---0---0---0-0---0---0---0-0---0---0---0-|
PM   ...   .   .   ...   .   .   .   ...   .   .   ...   .   .   .

- -----------------------------------------------------------------|
- -----------------------------------------------------------------|
- -----------------------------------------------------------------|
- ---------------------------------7-----7-----7---5-----5-----5---|
- -8-----8-----8---8-----8-----8-----------------------------------|
- ---8-8---8-8---8---8-8---8-8---8---5-5---5-5---5---5-5---5-5---5-|
PM   ...   ...   .   ...   ...   .   ...   ...   .   ...   ...   .

- -----------------------------------------------------------------|
- -----------------------------------------------------------------|
- -----------------------------------------------5-----------------|
- -7-----5---7---8-----7---5---7---7-----5---7---------7---5-------|
- -------------------------------------------------------------8---|
- ---0-0---0---0---0-0---0---0---0---0-0---0---0---0-0---0---0---0-|
PM   ...   .   .   ...   .   .   .   ...   .   .   ...   .   .   .

- -----------------------------------------------------------------|
- -----------------------------------------------------------------|
- -----------------------------------------------------------------|
- ---------------------------------7-----7-----7---5-----5-----5---|
- -8-----8-----8---8-----8-----8-----------------------------------|
- ---8-8---8-8---8---8-8---8-8---8---5-5---5-5---5---5-5---5-5---5-|
PM   ...   ...   .   ...   ...   .   ...   ...   .   ...   ...   .


----------------------------------------------------------------------------

[Riff 3, Guitar 1 & 2] - [00:27] - [00:46---------------------------| - [2x]
- ------------------------------------------------------------------|
- ------------------------------------------------------------------|
- ------------------------------------------------------------------|
- ---------------5-------------------------------5------------------|
- -8-----7---8---------8---7---8---8-----7---8---------8---7---5----|
- ---0-0---0---0---0-0---0---0---0---0-0---0---0---0-0---0---0---0--|
PM   ...   .   .   ...   .   .   .   ...   .   .   ...   .   .   .
-
- -----------------------------------------------------------------|
- -----------------------------------------------------------------|
- -----------------------------------------------------------------|
- -----------------------------------------------------------------|
- -0-0-0-0-0---------------000-0-0-000-0-0-0-----------------------|
- -0-0-0-0-0---------------000-0-0-000-0-0-0---------------0h10~---|
PM .........................................


- -----------------------------------------------------------------|
- -----------------------------------------------------------------|
- -----------------------------------------------------------------|
- -----------------------------------------------------------------|
- -5-----5-----5---5-----5-----5---8-----8-----8---7-----7-----7---|
- ---8-8---8-8---8---8-8---8-8---8---5-5---5-5---5---5-5---5-5---5-|
PM   ...   ...   .   ...   ...   .   ...   ...   .   ...   ...   .
-
- -----------------------------------------------------------------|
- -----------------------------------------------------------------|
- -----------------------------------------------------------------|
- -----------------------------------------------------------------|
- -888-8-8-8---------------888-8-8-555-5-5-5---------------5-[5b]--|
- -888-8-8-8---------------888-8-8-555-5-5-5---------------5-------|
PM .........................................................

second time around guitars switch parts

----------------------------------------------------------------------------

[Riff 4, Guitar 1 & 2] - [00:46] - [00:50]
- -----------------|
- -----------------|
- -----------------|
- -0~------\\\\\\\-|
- -0~------\\\\\\\-|
- -0~------\\\\\\\-|
-
- -----------------|
- -----------------|
- -----------------|
- -0~----------\\\-|
- -0~----------\\\-|
- -0~----------\\\-|

----------------------------------------------------------------------------

[Riff 5] - [00:50] - [00:59----------------------------------------| - [2x]
- -----------------------------------------------------------------|
- -----------------------------------------------------------------|
- -----------------------------------------------------------------|
- -----------------7-----7---7-----8----8---7---5---5--------------|
- -5-----5---5-5h8-------------5h8--------------------8-7-8-7-4h5--|
- ---0-0---0---------0-0---0---------0-0--0---0---0----------------|
PM   ...   .         ...   .         ...  .   .   .

----------------------------------------------------------------------------

[Riff 6] - [00:59] - [01:18------------------------------------------| - [2x]
- -------------------------------------------------------------------|
- -------------------------------------------------------------------|
- -------------------------------------------------------------------|
- ---------------------------------------------------10--------------|
- -5-----5-----5---5-----5-----5-----7---8-----8----------8---7------|
- ---8-8---8-8---8---8-8---8-8---8-8---8---8-8---8-8----8---8---8-8--|
PM   ...   ...   .   ...   ...   ...   .   ...   ...    .   .   ...

- -----------------------------------------------------------------|
- -----------------------------------------------------------------|
- -----------------------------------------------------------------|
- -----------------5-----5-----5---7-----7-----7---8-----8-----8---|
- -8-----8-----8---------------------------------------------------|
- ---0-0---0-0---0---0-0---0-0---0---0-0---0-0---0---0-0---0-0---0-|
PM   ...   ...   .   ...   ...   .   ...   ...   .   ...   ...   .

----------------------------------------------------------------------------

[Riff 7, Guitar 1 & 2] - [01:18] - [01:36]
- -----------------------------------------------------------------|
- -----------------------------------------------------------------|
- -----------------------------------------------------------------|
- -8~-----------------------------8~----------------------\--------|
- -8~-----------------------------8~----------------------\--------|
- -8~-----------------------------8~----------------------\--------|
-
- -----------------------------------------------------------------|
- -----------------------------------------------------------------|
- -------10--------13-----/15-----11--------------13----11----13---|
- -12----------12--------------------------------------------------|
- -----------------------------------------------------------------|
- -----------------------------------------------------------------|


- -----------------0---------------------------------0-------0-----|
- -----------------6---------------------------------6-------6-----|
- -----------------7---------------------------------7-------7-----|
- -0~--------------------------------------------------------------|
- -0~--------------------------0---0-----0-----0-------------------|
- -0~--------------------------0---0-----0-----0-------------------|
PM                             .................
-
- -----------------17----------------------------------------------|
- -----------------------------------------------------------------|
- -14------------------------------14------------------------------|
- -------------------------------------------------17----15----14--|
- ---------------------------------------12/---15------------------|
- -----------------------------------------------------------------|

----------------------------------------------------------------------------

[Riff 8, Guitar 1 & 2] - [01:36] - [01:54]
- -----------------------------------------------------------------|
- -----------------------------------------------------------------|
- -----------------------------------------------------------------|
- -----------------------------------------------------------------|
- -----------------------------------------------------------------|
- -8-8-8-8-8-8-8-8-8-8-8-8-101010105-5-5-5-5-5-5-5-5-5-5-5-7-7-7-7-|
-
- ------------------------------------------------------------------|
- ------------------------------------------------------------------|
- -1717171717171717171717171919191915151515151515151515151517171717-|
- -x-x-x-x-x-x-x-x-x-x-x-x-x-x-x-x-x-x-x-x-x-x-x-x-x-x-x-x-x-x-x-x--|
- -1515151515151515151515151717171713131313131313131313131315151515-|
- ------------------------------------------------------------------|


- -----------------------------------------------------------------|
- -----------------------------------------------------------------|
- -----------------------------------------------------------------|
- -----------------------------------------------------------------|
- -----------------------------------------------------------------|
- -0-0-0-0-0-0-0-0-2-2-2-2-2-2-2-2-3-3-3-3-3-3-3-3-5-5-5-5-7-7-7-7-|
-
- -----------------------------------------------------------------|
- -----------------------------------------------------------------|
- -141414141414141414141414121212121414141414141414101010109-9-9-9-|
- -x-x-x-x-x-x-x-x-x-x-x-x-x-x-x-x-x-x-x-x-x-x-x-x-x-x-x-x-x-x-x-x-|
- -1212121212121212121212121010101012121212121212128-8-8-8-7-7-7-7-|
- -----------------------------------------------------------------|

----------------------------------------------------------------------------

[Riff 9] - [01:54] - [01:55]
- -----------------|
- -----------------|
- -----------------|
- -----------------|
- -8-----7---8-----|
- ---0-0---0---0-0-|
PM   ...   .   ...

----------------------------------------------------------------------------

[Riff 2a + 2b] - [01:55] - [02:14]

[Riff 10, Guitar 1 & 2] - [02:14] - [02:23]
- -----------------------------------------------------------------|
- -----------------------------------------------------------------|
- -----------------------------------------------------------------|
- -----------------------------------------------------------------|
- -0---00000-0-0-0-0-0-0-0-0-0-0-0-0-0-0-0-0-0-0-0-0---00000-0-0-0-|
- -0---00000-0-0-0-0-0-0-0-0-0-0-0-0-0-0-0-0-0-0-0-0---00000-0-0-0-|
PM ...............................................................
-
- -----------------------------------------------------------------|
- -----------------------------------------------------------------|
- -----------------------------------------------------------------|
- -----------------------------------------------------------------|
- -0---00000-0-------------0-0-0-0-----0-0-0-0-----0---00000-0-----|
- -0---00000-0-------------0-0-0-0-----0-0-0-0-----0---00000-0-----|
PM ...........................................................


- -----------------------------------------------------------------|
- -----------------------------------------------------------------|
- -----------------------------------------------------------------|
- -----------------------------------------------------------------|
- -0---00000-0-0-0-0-0-0-0-0-0-0-0-0-0-0-0-0-0-0-0-0---00000-0-----|
- -0---00000-0-0-0-0-0-0-0-0-0-0-0-0-0-0-0-0-0-0-0-0---00000-0-----|
PM ...........................................................
-
- -----------------------------------------------------------------|
- -----------------------------------------------------------------|
- -----------------------------------------------------------------|
- -----------------------------------------------------------------|
- -0---00000-0-------------0-0-0-0-----0-0-0-0-----0---00000-0-----|
- -0---00000-0-------------0-0-0-0-----0-0-0-0-----0---00000-0-----|
PM ...........................................................


----------------------------------------------------------------------------

[Riff 11] - [02:23] - [02:32----------------------------------------| - [2x]
- ------------------------------------------------------------------|
- ------------------------------------------------------------------|
- ------------------------------------------------------------------|
- ------------------------------------------------------------------|
- -0---00000-0-------------0-0-0-0-----0-0-0-0-----0---00000-0------|
- -1---11111-1-------------1-1-1-1-----1-1-1-1-----1---11111-1------|
PM ...........................................................

----------------------------------------------------------------------------

[Riff 12] - [02:32] - [02:47----------------------------------------| - [2x]
- ------------------------------------------------------------------|
- ------------------------------------------------------------------|
- ------------------------------------------------------------------|
- ------------------------------------------------------------------|
- -0---00000-0-------------------------------------0---00000-0------|
- -1---11111-1-------------1-1-1-1-----1-1-1-1-----1---11111-1------|
PM ...........                                     ...........

----------------------------------------------------------------------------

[Symbols]

PM... Palm Mute notes with (...) under them
\     Slide Down
/     Slide Up
p     Pull Off
h     Hammer On
x     Dead Note
\\\   Pick Slide Down
[ ]   Pinch Harmonic
b     Bend
~     Let Ring

:)





Comments


Popular Miss May I tabs & chords
Swing 2 Bass Tabs
Answers Tabs
Blessed By A Curse Tabs
Gears Tabs
Harlots Breath Tabs
Harlots Breath Intro Tabs
Monument Tabs
Our Kings Tabs
Relentless Chaos 2 Tabs
Sirens Song Tabs


Song lyrics



↑ Back to top | Tablatures and chords are parodies/interpretations of the original songs. You may use it for private study, scholarship, research or language learning purposes only
© 2014 AZChords.com Contact us | Privacy policy | DMCA | Add/correct tabs | Request tabs | Top 50 tabs