>
 >
Colossal 1

Colossal 1 Guitar Tabs

Miss May I - Colossal 1 chords, tabs, tablatures, lyrics

Guitar lessons | Add/correct | Request | Top 50 tabs Artists:  A B C D E F G H I J K L M N O P Q R S T U V W X Y Z 0-9

Colossal 1 Guitar Tabs – Miss May I

CD, Sheet music, Poster

Do you like Colossal 1? Share with your friends now
TabsTabs v2
[Colossal]
[Monument]
[Miss May I]

Tuning: Drop C (CGCFAD/Drop D 1 Step Down)

[Riff 1a, Guitar 1 & 2] - [00:00] - [00:10]
- -----------------------------------------------------------------|
- -----------------------------------------------------------------|
- -----------------------------------------------------------------|
- -----------------------------------------------------------------|
- -----5---5-----5---5-----5---5-------5---5-----5---5-----5---5---|
- -0-0---0---0-0---0---0-0---0---0-0-0---0---0-0---0---0-0---0---0-|
PM ...   .   ...   .   ...   .   .....   .   ...   .   ...   .   .
-
- ------------------------------------------------------------------|
- ------------------------------------------------------------------|
- ------------------------------------------------------------------|
- ------------------------------------------------------------------|
- -000-000---------------------------------------------00-0-000-000-|
- -000-000---------------------------------------------11-1-111-111-|
PM ................................................................


- -----------------------------------------------------------------|
- -----------------------------------------------------------------|
- -----------------------------------------------------------------|
- -----------------------------------------------------------------|
- -----5---5-----5---5-----5---5-------5---5-----5---5-------------|
- -0-0---0---0-0---0---0-0---0---0-0-0---0---0-0---0---0-0---------|
PM ...   .   ...   .   ...   .   .....   .   ...   .   ...
-
- ------------------------------------------------------------------|
- ------------------------------------------------------------------|
- ------------------------------------------------------------------|
- ------------------------------------------------------------------|
- -000-000----------------------------------------------------------|
- -000-000----------------------------------------------------------|
PM .......

[Riff 1b] - [00:05] - [00:10]
- -----------------------------------------------------------------|
- -----------------------------------------------------------------|
- -----------------------------------------------------------------|
- -----------------------------------------------------------------|
- -----8---8-----8---8-----8---8-------8---8-----8---8-----8---8---|
- -0-0---0---0-0---0---0-0---0---0-0-0---0---0-0---0---0-0---0---0-|
PM ...   .   ...   .   ...   .   .....   .   ...   .   ...   .   .

- -----------------------------------------------------------------|
- -----------------------------------------------------------------|
- -----------------------------------------------------------------|
- -----------------------------------------------------------------|
- -----8---8-----8---8-----8---8-------8---8-----8---8-------------|
- -0-0---0---0-0---0---0-0---0---0-0-0---0---0-0---0---0-0---------|
PM ...   .   ...   .   ...   .   .....   .   ...   .   ...

----------------------------------------------------------------------------

[Riff 2] - [00:10] - [00:19---------| - [4x]
- ----------------------------------|
- ----------------------------------|
- ----------------------------------|
- ----------------------------------|
- -0---00000-----------00000-0-0-0--|
- -1---11111-----------11111-1-1-1--|
PM ...............................

----------------------------------------------------------------------------

[Riff 3] - [00:19] - [00:29---------| - [4x]
- ----------------------------------|
- ----------------------------------|
- ----------------------------------|
- ----------------------------------|
- -0---0000------------00000-0-0-0--|
- -0---00000-----------00000-0-0-0--|
PM ...............................

----------------------------------------------------------------------------

[Riff 4] - [00:29] - [00:48-------------| - [2x]
- --------------------------------------|
- --------------------------------------|
- --------------------------------------|
- --------------------------------------|
- -----10---10/12---10---8-----7---8----|
- -0-0----0-------0----0---0-0---0---0--|
PM ...    .       .    .   ...   .   .

- -------------------------------------|
- -------------------------------------|
- -------------------------------------|
- -------------------------------------|
- -----10---10/12---10---8-----7---8---|
- -0-0----0-------0----0---0-0---0---0-|
PM ...    .       .    .   ...   .   .

- ---------------------------------------------|
- ---------------------------------------------|
- ---------------------------------------------|
- ---------------------------------------------|
- -12-----12---12---12---12-----12---12---12---|
- ----8-8----8----8----8----8-8----8----8----8-|
PM    ...    .    .    .    ...    .    .    .

- ------------------------------------|
- ------------------------------------|
- ------------------------------------|
- -10-----10---10---8-----8---7---7---|
- ------------------------------------|
- ----7-7----7----7---7-7---7---7---7-|
PM    ...    .    .   ...   .   .   .

----------------------------------------------------------------------------

[Riff 5] - [00:48] - [01:07]
- ----------------------------------------|
- ----------------------------------------|
- ----------------------------------------|
- ----------------------------------------|
- -----10---10-----10---10-----10---10/12-|
- -8-8----8----8-8----8----8-8----8-------|
PM ...    .    ...    .    ...    .

- -----------------------------------------------|
- -----------------------------------------------|
- -----------------------------------------------|
- -----------------------------------------------|
- -------12----12-------12----12-------12----12\-|
- -10-10----10----10-10----10----10-10----10-----|
PM .....    ..    .....    ..    .....    ..

- ---------------------------------|
- ---------------------------------|
- ---------------------------------|
- ---------------------------------|
- -----8---8-----8---8-----8---8\--|
- -7-7---7---7-7---7---7-7---7-----|
PM ...   .   ...   .   ...   .

- -----------------------------------------------|
- -----------------------------------------------|
- -----------------------------------------------|
- -----------------------------------------------|
- -------15----15-------13----13-------12----12\-|
- -12-12----12----12-12----12----12-12----12-----|
PM .....    ..    .....    ..    .....    ..

- ----------------------------------------|
- ----------------------------------------|
- ----------------------------------------|
- ----------------------------------------|
- -----10---10-----10---10-----10---10/12-|
- -8-8----8----8-8----8----8-8----8-------|
PM ...    .    ...    .    ...    .

- -----------------------------------------------|
- -----------------------------------------------|
- -----------------------------------------------|
- -----------------------------------------------|
- -------12----12-------12----12-------12----12\-|
- -10-10----10----10-10----10----10-10----10-----|
PM .....    ..    .....    ..    .....    ..

- ---------------------------------|
- ---------------------------------|
- ---------------------------------|
- ---------------------------------|
- -----8---8-----8---8-----8---8\--|
- -7-7---7---7-7---7---7-7---7-----|
PM ...   .   ...   .   ...   .

- ---------------------------------|
- ---------------------------------|
- ---------------------------------|
- -3-----------------------5-------|
- -3---3-3-3-3-3-3-5-5-5-5-5-------|
- -3---3-3-3-3-3-3-5-5-5-5-5-------|
PM     ...................

----------------------------------------------------------------------------

[Riff 6a] - [01:07] - [01:27----------------------------------------| - [2x]
- ------------------------------------------------------------------|
- ------------------------------------------------------------------|
- ------------------------------------------------------------------|
- ------------------------------------------------------------------|
- -0---0-0-0-----------0-0-0-0-0-0-0---0-0-0-----------0-0-0-0-0-0--|
- -0---0-0-0-----------0-0-0-0-0-0-0---0-0-0-----------0-0-0-0-0-0--|
PM ...............................................................

- -----------------------------------------------------------------|
- -----------------------------------------------------------------|
- -----------------------------------------------------------------|
- -----------------------------------------------------------------|
- -8---8-8-8-----------8-8-8-8-8-8-5---5-5-5-----------5-5-5-5-5-5-|
- -8---8-8-8-----------8-8-8-8-8-8-5---5-5-5-----------5-5-5-5-5-5-|
PM ...............................................................

[Riff 6b] - [01:07] - [01:27------------------| - [2x]
- --------------------------------------------|
- -----10-----------13---11---10h11p10--------|
- ----------10/12----------------------10/12--|
- -0-0----0-------0----0----0-----------------|
- --------------------------------------------|
- --------------------------------------------|
PM ...    .       .    .    .

- -------------------------------------------|
- -----10-----------13---11---10h11p10-------|
- ----------10/12----------------------10/12-|
- -0-0----0-------0----0----0----------------|
- -------------------------------------------|
- -------------------------------------------|
PM ...    .       .    .    .

- -------------------------------------------|
- -----10-----------13---11---10h11p10-------|
- ----------10/12----------------------10/12-|
- -0-0----0-------0----0----0----------------|
- -------------------------------------------|
- -------------------------------------------|
PM ...    .       .    .    .

- -----------------------------------------|
- -----10---10\8--------10------10---------|
- -----------------10------10--------10-10-|
- -0-0----0------0----0-------0----0-------|
- -----------------------------------------|
- -----------------------------------------|
PM ...    .      .    .       .    .

----------------------------------------------------------------------------

[Riff 7] - [01:27] - [01:28]
- -----------------|
- -----------------|
- -----------------|
- -7-----8---------|
- ---6-5---5\------|
- -----------------|

----------------------------------------------------------------------------

[Riff 8] - [01:28] - [01:47]
- -----------------------------------------------------------------|
- -----------------------------------------------------------------|
- -----------------------------------------------------------------|
- -----------------------------------------------------------------|
- -0-0-0-0-----0-------------------00000---------------------------|
- -0-0-0-0-----0-------------------00000-------0v------0-0---0-0---|
PM .....................................

- -----------------------------------------------------------------|
- -----------------------------------------------------------------|
- -----------------------------------------------------------------|
- -------------------------------------------------7-----8---------|
- -0-0-0-0-----0-------------------00000---00000-----6-5---5\------|
- -0-0-0-0-----0-------------------00000---00000-------------------|
PM .............................................

- -----------------------------------------------------------------|
- -----------------------------------------------------------------|
- -----------------------------------------------------------------|
- -----------------------------------------------------------------|
- -0-0-0-0-----0-------------------00000---------------------------|
- -0-0-0-0-----0-------------------00000-------0v------0-0---0-0-0-|
PM .....................................

- -----------------------------------------------------------------|
- -----------------------------------------------------------------|
- -----------------------------------------------------------------|
- -----------------------------------------------------------------|
- -0-0-0-0-----0-------------------00000---00000---0---------------|
- -0-0-0-0-----0-------------------00000---00000-----1-0-1-0-------|
PM .............................................

----------------------------------------------------------------------------

[Riff 9a] - [01:47] - [02:06]
- -----------------------------------------------------------------|
- -----------------------------------------------------------------|
- -----------------------------------------------------------------|
- -----------------------------------------------------------------|
- -0-0---0---0-0-------------------0-0-0-0-0-0-0-0-----------------|
- -0-0---0---0-0-------------------0-0-0-0-0-0-0-0-----------------|
PM ...............................................

- -----------------------------------------------------------------|
- -----------------------------------------------------------------|
- -----------------------------------------------------------------|
- -----------------------------------------------------------------|
- -0-0---0---0-0-------------------0-0-0-0-0-0-0-0-0---------------|
- -0-0---0---0-0-------------------0-0-0-0-0-0-0-0---1-0-1-0-------|
PM ...............................................

- -----------------------------------------------------------------|
- -----------------------------------------------------------------|
- -----------------------------------------------------------------|
- -----------------------------------------------------------------|
- -0-0---0---0-0-------------------0-0-0-0-0-0-0-0-----------------|
- -0-0---0---0-0-------------------0-0-0-0-0-0-0-0-----------------|
PM ...............................................

- -----------------------------------------------------------------|
- -----------------------------------------------------------------|
- -----------------------------------------------------------------|
- ---------------------------------8-8-8-8-8-8-8-8-5-5-5-5-7-7-7-7-|
- -0-0---0---0-0-------------------8-8-8-8-8-8-8-8-5-5-5-5-7-7-7-7-|
- -0-0---0---0-0-------------------8-8-8-8-8-8-8-8-5-5-5-5-7-7-7-7-|

[Riff 9b] - [01:57] - [02:06]
- ------------------------------------------------------------------|
- ------------------------------------------------------------------|
- ---------------------------------14141414141414141010101012121212-|
- ---------------------------------x-x-x-x-x-x-x-x-x-x-x-x-x-x-x-x--|
- ---------------------------------12121212121212128-8-8-8-10101010-|
- ------------------------------------------------------------------|

----------------------------------------------------------------------------

[Riff 10, Guitar 1 & 2] - [02:06] - [02:21]
- ------------------------------------------------------------------|
- ------------------------------------------------------------------|
- ------------------------------------------------------------------|
- -0-------------------------------8-8-8-8-8-8-8-8-5-5-5-5-10101010-|
- -0---000-000-000-000-000-000-000-8-8-8-8-8-8-8-8-5-5-5-5-10101010-|
- -0---000-000-000-000-000-000-000-8-8-8-8-8-8-8-8-5-5-5-5-10101010-|
PM     ...........................
-
- ------------------------------------------------------------------|
- ------------------------------------------------------------------|
- ---------------------------------14141414141414141010101017171717-|
- ---------------------------------x-x-x-x-x-x-x-x-x-x-x-x-x-x-x-x--|
- ---------------------------------12121212121212128-8-8-8-15151515-|
- ------------------------------------------------------------------|


- ------------------------------------------------------------------|
- ------------------------------------------------------------------|
- ------------------------------------------------------------------|
- -0-------------------------------8-8-8-8-8-8-8-8-5-5-5-5-7-7-7-7--|
- -0---0-0-0-0-0-0-0-0-0-0-0-0-0-0-8-8-8-8-8-8-8-8-5-5-5-5-7-7-7-7--|
- -0---0-0-0-0-0-0-0-0-0-0-0-0-0-0-8-8-8-8-8-8-8-8-5-5-5-5-7-7-7-7--|
PM     ...........................
-
- ------------------------------------------------------------------|
- ------------------------------------------------------------------|
- ---------------------------------14141414141414141010101012121212-|
- ---------------------------------x-x-x-x-x-x-x-x-x-x-x-x-x-x-x-x--|
- ---------------------------------12121212121212128-8-8-8-10101010-|
- ------------------------------------------------------------------|


- ------------------------------------------------------------------|
- ------------------------------------------------------------------|
- ------------------------------------------------------------------|
- -0-------------------------------8-8-8-8-8-8-8-8-101010107-7-7-7--|
- -0---000-000-000-000-000-000-000-8-8-8-8-8-8-8-8-101010107-7-7-7--|
- -0---000-000-000-000-000-000-000-8-8-8-8-8-8-8-8-101010107-7-7-7--|
PM     ...........................
-
- ------------------------------------------------------------------|
- ------------------------------------------------------------------|
- ---------------------------------14141414141414141717171714141414-|
- ---------------------------------x-x-x-x-x-x-x-x-x-x-x-x-x-x-x-x--|
- ---------------------------------12121212121212121515151512121212-|
- ------------------------------------------------------------------|

----------------------------------------------------------------------------

[Riff 11a] - [02:21] - [02:40---------------------------------------| - [4x]
- ------------------------------------------------------------------|
- ------------------------------------------------------------------|
- ------------------------------------------------------------------|
- -0-----------------------------5--------------7---------5---------|
- -0-------------5---8---------------7--------------8-------8-7-8---|
- -0---0-0-0-0-0---0---0-0-0-0-0---0---0-0-0-0-0--0---0-0-----------|
PM     .........   .   .........   .   .........  .   ...

[Riff 11b] - [02:30] - [02:40---------------------------------------------| - [2x]
- ------------------------------------------------------------------------|
- ------------------------------------------------------------------------|
- ------------------------------------------------------------------------|
- -0------------------------------8----------------10---------8-----------|
- -0-------------8---12---------------10----------------12------10-12-10--|
- -0---0-0-0-0-0---0----0-0-0-0-0---0----0-0-0-0-0----0----0-0------------|
PM     .........   .    .........   .    .........    .    ...

----------------------------------------------------------------------------

[Riff 12] - [02:40] - [02:42]
- ------------------|
- ------------------|
- ------------------|
- -0~------\\\\\\\\-|
- -0~------\\\\\\\\-|
- -0~------\\\\\\\\-|

----------------------------------------------------------------------------

[Riff 13] - [02:42] - [03:01]
- ----------------------------------------|
- ----------------------------------------|
- ----------------------------------------|
- ----------------------------------------|
- -----10---10-----10---10-----10---10/12-|
- -8-8----8----8-8----8----8-8----8-------|
PM ...    .    ...    .    ...    .

- -----------------------------------------------|
- -----------------------------------------------|
- -----------------------------------------------|
- -----------------------------------------------|
- -------12----12-------12----12-------12----12\-|
- -10-10----10----10-10----10----10-10----10-----|
PM .....    ..    .....    ..    .....    ..

- ---------------------------------|
- ---------------------------------|
- ---------------------------------|
- ---------------------------------|
- -----8---8-----8---8-----8---8\--|
- -7-7---7---7-7---7---7-7---7-----|
PM ...   .   ...   .   ...   .

- -----------------------------------------------|
- -----------------------------------------------|
- -----------------------------------------------|
- -----------------------------------------------|
- -------15----15-------13----13-------12----12\-|
- -12-12----12----12-12----12----12-12----12-----|
PM .....    ..    .....    ..    .....    ..

- ----------------------------------------|
- ----------------------------------------|
- ----------------------------------------|
- ----------------------------------------|
- -----10---10-----10---10-----10---10/12-|
- -8-8----8----8-8----8----8-8----8-------|
PM ...    .    ...    .    ...    .

- -----------------------------------------------|
- -----------------------------------------------|
- -----------------------------------------------|
- -----------------------------------------------|
- -------12----12-------12----12-------12----12\-|
- -10-10----10----10-10----10----10-10----10-----|
PM .....    ..    .....    ..    .....    ..

- ---------------------------------|
- ---------------------------------|
- ---------------------------------|
- ---------------------------------|
- -----8---8-----8---8-----8---8\--|
- -7-7---7---7-7---7---7-7---7-----|
PM ...   .   ...   .   ...   .

- ---------------------------------|
- ---------------------------------|
- ---------------------------------|
- -3-------------------------------|
- -3---3-3-3-3-3-3-5-5-5-5-5-5-5-5-|
- -3---3-3-3-3-3-3-5-5-5-5-5-5-5-5-|
PM     ...........................

----------------------------------------------------------------------------

[Riff 14a] - [03:01] - [03:11]
- ------------------------------------------------------------------|
- ------------------------------------------------------------------|
- ------------------------------------------------------------------|
- -----7-----------7-----------7-------7-----------7-------10-------|
- -------8-7-8-------8-7-8-------8-------8-7-8-------8-7-8----8-7-8-|
- -0-0---------0-0---------0-0-----0-0---------0-0------------------|
PM ...         ...         ...     ...         ...

- ------------------------------------------------------------------|
- ------------------------------------------------------------------|
- ------------------------------------------------------------------|
- -----7-----------7-----------7-------7-----------7-------10-------|
- -------8-7-8-------8-7-8-------8-------8-7-8-------8-7-8----------|
- -0-0---------0-0---------0-0-----0-0---------0-0------------------|
PM ...         ...         ...     ...         ...


[Riff 14b] - [03:06] - [03:11]
- -------------------------------------------|
- -------------------------------------------|
- -------------------------------------------|
- -----10--------------10--------------10----|
- --------12-10-12--------12-10-12--------12-|
- -0-0-------------0-0-------------0-0-------|
PM ...             ...             ...

- -------------------------------------|
- -------------------------------------|
- -------------------------------------|
- -----10--------------10----------14--|
- --------12-10-12--------12-10-12-----|
- -0-0-------------0-0-----------------|
PM ...             ...

----------------------------------------------------------------------------

[Riff 6a + 6b] - [03:11] - [03:30] - [2x]

[Riff 15a] - [03:30] - [03:38]
- ------------------------------------------------------------------|
- ------------------------------------------------------------------|
- ------------------------------------------------------------------|
- -----7-----------7-----------7-------7-----------7-------10-------|
- -------8-7-8-------8-7-8-------8-------8-7-8-------8-7-8----8-7-8-|
- -0-0---------0-0---------0-0-----0-0---------0-0------------------|
PM ...         ...         ...     ...         ...

[Riff 15b] - [03:30] - [03:38]
- -------------------------------------------------------------------------|
- -------------------------------------------------------------------------|
- -------------------------------------------------------------------------|
- -------------------------------------------------10----------14----------|
- -0-0---------0-0---------0-0-----0-0---------0-0----12-10-12----10-12-10-|
- -0-0---------0-0---------0-0-----0-0---------0-0-------------------------|
PM ...............................................

----------------------------------------------------------------------------

[Symbols]

PM... Palm Mute notes with (...) under them
/     Slide Up
\     Slide Down
h     Hammer On
p     Pull Off
v     Whammy Bar Down
x     Dead Note
\\\   Pick Slide

:)





Comments


Popular Miss May I tabs & chords
In Recognition Chords
Answers Tabs
Ballad Of A Broken Man Tabs
Colossal Tabs
Day By Day Tabs
Harlots Breath 2 Tabs
Masses Of A Dying Breed Tabs
Masses Of A Dying Breed 1 Tabs
Monument Tabs
Unfortunate Engagement Tabs


Song lyrics



↑ Back to top | Tablatures and chords are parodies/interpretations of the original songs. You may use it for private study, scholarship, research or language learning purposes only
© 2014 AZChords.com Contact us | Privacy policy | DMCA | Add/correct tabs | Request tabs | Top 50 tabs