>
 >
Colossal

Colossal Guitar Tabs

Miss May I - Colossal chords, tabs, tablatures, lyrics

Guitar lessons | Add/correct | Request | Top 50 tabs Artists:  A B C D E F G H I J K L M N O P Q R S T U V W X Y Z 0-9

Colossal Guitar Tabs – Miss May I

CD, Sheet music, Poster

Do you like Colossal? Share with your friends now
TabsTabs v2
hello, i tried my best with this song, so hopefully it helps, its in drop C btw, sorry 
it's off, constructive criticism is welcome :)

Intro
Guitar 1

|----------------------------|
|----------------------------|
|----------------------------|
|----------------------------| x3
|---5-5--5-5--5-5------------|
|-00-0-00-0-00-0--0----------|
  .. . .. . .. .  .

|----------------------------|
|----------------------------|
|----------------------------|
|----------------------------| Last time
|---5-5--5-5-----------------|
|-00-0-00-0--00--------------|
  .. . .. .  ..

Guitar 2

|----------------------------|
|----------------------------|
|----------------------------|
|----------------------------| x2
|---5-5--5-5--5-5------------|
|-00-0-00-0-00-0--0----------|
  .. . .. . .. .  .

|------------------------------------|
|------------------------------------|
|------------------------------------|
|------------------------------------|
|---8-8--8-8--8-8----8-8--8-8--------|
|-00-0-00-0-00-0--000-0-00-0--00-----|
  .. . .. . .. .  ... . .. .  ..

Breakdown 1 - Both Guitars

Part 1
|----------------------------|
|----------------------------|
|----------------------------|
|----------------------------| x4
|-0~-0000----0000-0-0-0------|
|-1~-1111----1111-1-1-1------|
     ^^^^    ^^^
Part 2
|----------------------------|
|----------------------------|
|----------------------------|
|----------------------------| x4
|-0~-000-------0000-0-0-0----|
|-0~-0000~-----0000-0-0-0----|
     ^^^       ^^^


 Verse 1 - both guitars
|-----------------------------------------------------------------|
|-----------------------------------------------------------------|
|-----------------------------------------------------------------|
|-----------------------------7--7-7-7--7-7-7-10--10-10-8--8-8-8--| x2
|---10-10h12-10-8--7-8--x2----------------------------------------|
|-00--0-----0--0-00-0----------88-8-8-88-8-8-8--77--7--7-77-7-7---|
  ..  .     .  . .. .          .. . . .. . . .  ..  .  . .. . .


Verse 2 - both guitars x 2
|----------------------------------------------------------|
|----------------------------------------------------------|
|----------------------------------------------------------|
|----------------------------------------------------------|
|---10-10--10-10--10-10h12----12--12----12--12----12--12s8-|
|-88--8--88--8--88--8-----1010--10--1010--10--1010--10-----|
  ..  .  ..  .  ..  .     . .   .   . .   .   . .   .
|------------------|--------------------------------|----------------------|
|------------------|------------1st-time------------|------2nd-time--------|
|------------------|--------------------------------|----------------------|
|------------------|--------------------------------|----------------------|
|---8-8--8-8--8-8--|-----15--15----13--13----12--12-|-3~33333355555--------|
|-77-7-77-7-77-7---|-1212--12--1212--12--1212--12---|-3~33333355555--------|
  .. . .. . .. .     . .   .   . .   .   . .   .        ...........

Chorus

Guitar 1 - Brackets to show their double digits, not harmonics.

play whole part twice

|----------------------------------------|
|----------------------------------------|
|--00(12)0(10)00(17)0(15)00(15)(14)(10)--|  x3
|----------------------------------------|
|----------------------------------------|
|----------------------------------------|

|-----------------------------------|
|-----------------------------------|
|---00(12)0(10)000(10)00(10)00(10)--| Played on the fourth time
|-----------------------------------|
|-----------------------------------|
|-----------------------------------|

Guitar 2

|--------------------------------------------------------|
|--------------------------------------------------------|
|--------------------------------------------------------|
|--------------------------------------------------------| x2
|-0-000--0000000-000--0000008-888--8888885-555--555555---|
|-0-000--0000000-000--0000008-888--8888885-555--555555---|
  . ...  ....... ...  ....... ...  ....... ...  ......


Interlude

Guitar 1
|--------------------|
|--------------------|
|--------------------|
|---7--7-------------|
|----87-5db----------|
|--------------------|


Breakdown 2

Guitar 1
|----------------------------------------------------|----------|----------|
|----------------------------------------------------|----1st---|---2nd----|
|----------------------------------------------------|----------|----------|
|----------------------------------------------------|--7--7----|----------|
|-0000~--0~--0000--------------0000~--0~--0000--0000-|---87-5/--|----------|
|-0000~--0~--0000--12/--00-00--0000~--0~--0000--0000-|----------|--73030---|
  ....   .   ....              ....   .   ....  ....
             ^^^^ play quickly            ^^^^  ^^^^


Breakdown 3

Part 1 - both guitars
|------------------------------------------------------------------|
|------------------------------------------------------------------|
|-----------------10-zeros------------------------8-zeros----------|
|----------------/========\-----------------------/======\---------|
|-00-0-00--------0000000000--------00-0-00--------00000000---------|
|-00-0-00--------0000000000--------00-0-00--------0000000073030----|
  .. . ..        ..........        .. . ..        ........


Part 2 - Guitar 1
|------------------------------------------------------------------|
|------------------------------------------------------------------|
|-----------------10-zeros------------------------14----10----9----|
|----------------/========\-------------------------x8----x4---x4--|
|-00-0-00--------0000000000--------00-0-00--------12----8-----7----|
|-00-0-00--------0000000000--------00-0-00-------------------------|
  .. . ..        ..........        .. . ..

Guitar 2
|---------------------------------------------------------------------|
|---------------------------------------------------------------------|
|-----------------10-zeros--------------------------------------------|
|----------------/========\-------------------------7-----5-----7-----|
|-00-0-00--------0000000000--------00-0-00----------7-x8--5-x4--7-x4--|
|-00-0-00--------0000000000--------00-0-00----------7-----5-----7-----|
  .. . ..        ..........        .. . ..

Verse 3 - Part 1

Guitar 1
|-------------------|--------(1st)--------|-------(2nd)---------|
|-------------------|---------------------|---------------------|
|-------------------|--14-----10----17----|--14-----10----12----|
|-------------------|-----x8----x4----x4--|-----x8----x4----x4--|
|-0~-00000000000000-|--12-----8-----15----|--12-----8-----10----|
|-0~-00000000000000-|---------------------|---------------------|
     ..............

Guitar 2
|-------------------|--------(1st)--------|--------(2nd)--------|
|-------------------|---------------------|---------------------|
|-------------------|---------------------|---------------------|
|-------------------|--7-----5-----10-----|--7-----5-----7------|
|-0~-00000000000000-|--7-x8--5-x4--10-x4--|--7-x8--5-x4--7-x4---|
|-0~-00000000000000-|--7-----5-----10-----|--7-----5-----7------|
     ..............

Guitar 1
|---------------------------------|------------------|
|---------------------------------|------------------|
|---------------------------------|--14---17---10----|
|---------------------------------|----x8---x4---x4--|
|-0~-000-000-000-000-000-000-000--|--12---15---8-----|
|-0~-000-000-000-000-000-000-000--|------------------|
     ^^^ ^^^ ^^^ ^^^ ^^^ ^^^ ^^^ played quickly

Guitar 2
|---------------------------------|---------------------|
|---------------------------------|---------------------|
|---------------------------------|---------------------|
|---------------------------------|--7-----10-----3-----|
|-0~-000-000-000-000-000-000-000--|--7-x8--10-x4--3-x4--|
|-0~-000-000-000-000-000-000-000--|--7-----10-----3-----|
     ^^^ ^^^ ^^^ ^^^ ^^^ ^^^ ^^^ played quickly

Verse 3 - Part 2

Guitar 1
|---------------------------------------|
|---------------------------------------|
|---------------------------------------|
|---------------------------------------| x4
|-0~------5-8-----10-7-----12-8--10878--|
|-0~-00000-0-00000--0-00000--0-00-------|
     ..... . .....  . .....  . ..

Guitar 2
|-----------------------------------------|--------------------------------------|
|-----------------------------------------|--------------------------------------|
|-----------------------------------------|--------------------------------------|
|--------------------------------------x2-|--------3-7-----8-5-----10-7--8757-x2-|
|-0~------5-8-----10-7-----12-8--10878----|0~------------------------------------|
|-0~-00000-0-00000--0-00000--0-00---------|0~-00000-0-00000-0-00000--0-00--------|
     ..... . .....  . .....  . ..             ..... . ..... . .....  . ..


interlude 2
|----------------------------|
|----------------------------|
|----------------------------|
|----------------------------|
|-0~-------------------------|
|-0~--Pick-slide//////////---|


Verse 2 repeated


Verse 4

Guitar 1
|---------------------------------------------------------------------|
|---------------------------------------------------------------------|
|---------------------------------------------------------------------|
|---7-----7-----7----7-----7---10------7-----7-----7----7-----7---10--|
|----878---878---8----878---878--878----878---878---8----878---878----|
|-00----00----00---00----00----------00----00----00---00----00--------|
  ..    ..    ..   ..    ..          ..    ..    ..   ..    ..

Guitar 2
|---------------------------------------------------------------------|
|---------------------------------------------------------------------|
|--------------------------------------5-----5-----5----5-----5---9---|
|---7-----7-----7----7-----7---10-------757---757---7----757---757----|
|----878---878---8----878---878--878----------------------------------|
|-00----00----00---00----00----------00----00----00---00----00--------|
  ..    ..    ..   ..    ..          ..    ..    ..   ..    ..


Chorus repeated


End Part

Guitar 1
|---------------------------------------|
|---------------------------------------|
|---------------------------------------|
|---7-----7-----7----7-----7---10-------|
|----878---878---8----878---878--878-0--|
|-00----00----00---00----00----------0--|
  ..    ..    ..   ..    ..

Guitar 2
|-------------------------------------|
|-------------------------------------|
|-------------------------5---9-------|
|--------------------------757-757----|
|-00----00----00--00----00---------0--|
|-00----00----00--00----00---------0--|
  ..    ..    ..  ..    ..


. = Palm mute
~ = ring
/ = slide
h = hammer on
db = dive bomb on the whammy bar





Comments


Popular Miss May I tabs & chords
Relentless Chaos Bass Tabs
In Recognition Chords
Apologies Are For The Weak Tabs
Architect Tabs
Architect 1 Tabs
Day By Day 1 Tabs
Harlots Breath Intro Tabs
Relentless Chaos 1 Tabs
Relentless Chaos 3 Tabs
Swing Tabs


Song lyrics



↑ Back to top | Tablatures and chords are parodies/interpretations of the original songs. You may use it for private study, scholarship, research or language learning purposes only
© 2014 AZChords.com Contact us | Privacy policy | DMCA | Add/correct tabs | Request tabs | Top 50 tabs