>
 >
Blessing With A Curse

Blessing With A Curse Guitar Tabs

Miss May I - Blessing With A Curse chords, tabs, tablatures, lyrics

Guitar lessons | Add/correct | Request | Top 50 tabs Artists:  A B C D E F G H I J K L M N O P Q R S T U V W X Y Z 0-9

Blessing With A Curse Guitar Tabs – Miss May I

CD, Sheet music, Poster

Do you like Blessing With A Curse? Share with your friends now
Tabs
Live Intro
|---------------|------------------|     |---------------------|
|-9--11--12--16-|-9--11--12--19-16-|     |-19-16--19-16--19-16-|
|---------------|------------------| x15 |---------------------|(Fades out)
|---------------|------------------|     |---------------------|
|---------------|------------------|     |---------------------|
|---------------|------------------|     |---------------------|

Intro
|-----------------------------------------------|
|-----------------------------------------------|
|-----------------------------------------------|
|-----------------------------------------------|
|-0~----0~----0000000-0-0--0~----0~----0000000~-|
|-0~----0~----0000001-1-1--0~----0~----0000001~-|
              ....... . .              .......


|----------------------------------------------------------|
|----------------------------------------------------------|
|----------------------------------------------------------|  x2
|----------------------------------------------------------|
|-0~--0000-0-0-0~--000000-0-0-0-0~-000-0-0-0~--4----------|
|-1~--1111-1-1-1~--111111-1-1-1-1~-111-1-1-1~---7-4-6-3v--|
      **** * *     ******   * *    ***          . .      

Tremolo Pick 
|-----------------------------------------------------|
|-----------------------------------------------------|
|-----------------------------------------------------|
|-----------------------------------------------------|  x4
|--8888-555-7777-445577---5-5-4-4-0-0-1-1--4-4-1-1-0-0|
|-----------------------------------------------------|

Pre-Verse
|------------------------------------------------------------------|
|------------------------------------------------------------------|
|------------------------------------------------------------------|
|------------------------------------------------------------------|
|----5-5-5---5-5-5---5-5-5---5-5-5---5-5-5---5-5-5---7-7-7---8-8-8-|
|-000-0-0-000-0-0-000-0-0-000-0-0-555-5-5-555-5-5-555-5-5-555-5-5--|
  ... . . ... . . ... . . ... . . ... . . ... . . ... . . ... . .

Guitar II
|--------------------------------------------------------|
|--------------------------------------------------------|
|--------------------------------------------------------|
|--------------0~--------8~------------------------------|
|--------------0~--------8~----10-10-10\-(pickslide)-----|
|------------0-0~------8-8~----10-10-10\-----------------|
             .         .        .

Verse Guitar I&II
|------------------------------------------------------------------|
|------------------------------------------------------------------|
|------------------------------------------------------------------| x2
|------------------------------------------------------------------|
|----5-5-5---5-5-5---5-5-5---5-5-5---5-5-5---5-5-5---7-7-7---8-8-8-|
|-000-0-0-000-0-0-000-0-0-000-0-0-555-5-5-555-5-5-555-5-5-555-5-5--|
  ... . . ... . . ... . . ... . . ... . . ... . . ... . . ... . .

Played by Guitar II 2nd time on Verse
|------------------------------------------------------------------|
|------------------------------------------------------------------|
|------------------------------------------------------------------|
|------------------------------------------------------------------|
|-----8-8-8--8-8-8--8-8-8--8-8-8--8-8-8--8-8-8--10-10-10--12-12-12-|
|-0000-0-0-00-0-0-00-0-0-00-0-0-88-8-8-88-8-8-88--8--8--88--8--8---|
  .... . . .. . . .. . . .. . . .. . . .. . . ..  .  .  ..  .  .


Interlude
|-------------------------------------------|------------------------------|
|-------------------------------------------|------------------------------|
|-------------------------------------------|------------------------------|
|-0--------0----------0--------------7h8p7--|------------------------------|
|-0--5-3h5-0--8-7p5p3-0--5-3h5----7h8-----8-|---5-5-5--5-5-5--7-7-7--8-8-8-|
|-0-0-0----0-0-0------0-0-0----5h8----------|000-0-0-00-0-0-55-5-5-55-5-5--|
  . . .      . .        . .                  ... . . .. . . .. . . .. . .

...continued
|-------------------------------------------------|
|-------------------------------------------------|
|-------------------------------------------------|
|-0--------0----------0-------8h7h5-----8h7h5-----|
|-0--5-3h5-0--8-7p5p3-0--5-3h5-----8h7h5-----8h7h5|
|-0-0-0----0-0-0------0-0-0-----------------------|
  . . .      . .        . .                  
|------------------------------|
|------------------------------|
|------------------------------|
|------------------------------|
|---5-5-5--5-5-5--7-7-7--8-8-8-|
|000-0-0-00-0-0-55-5-5-55-5-5--|
 ... . . .. . . .. . . .. . .

Guitar II
|-------------------------------------|
|-------------------------------------|
|-------------------------------------|
|-------------------------------------| x2
|-0----00000----000-0-8~--10~---------|
|-0----00000----000-0-8~--10~---------|
       ....



Verse II
|----------------------------------------------------------------------|
|----------------------------------------------------------------------|
|----------------------------------------------------------------------|
|----------------------------------------------------------------------| x2
|-7h5-7-8-7------7h5-7-8-7-------10h8-10-12-10-------8h7-8-10-8--------|
|----0-0-0-000000---0-0-0--555555----8--8--8--888888----7-7--7-777777--|
     . . . ......   . . .  ......    .  .  .  ......    . .  . ......



Pre-Chorus
|------------------------------------------------|-----------------|
|------------------------------------------------|-----------------|
|------------------------------------------------|-----------x2----| x2
|------------------------------------------------|-----------------|
|-10------10--10-10-10------------10----10--10---|-7h5-7-8-7-------|
|---888888--88--8--8--101010101010--1010--10--10-|----0-0-0-000000-|
    ......  ..  .  .  . . . . . .   . .   .   .       . . . ......
 

|-----------------------------------------------|--------------------------|
|-----------------------------------------------|--------------------------|
|-----------------------------------------------|--------------------------|
|-----------------------------------------------|-888888888-------888888888|
|10------10--10-10-10------------10----10--10---|-555555555-0-0-0-555555555|
|--888888--88--8--8--101010101010--1010--10--10-|-555555555-0-0-0-555555555|
   ......  ..  .  .   . . . . . .   . .   .   .             . . .

Chorus (Repeat 3-1/2 Times)
|--------------------------------------------------------------------|
|--------------------------------------------------------------------|
|--------------------------------------------------------------------|
|----------------------------------8--8--8--8---------8-8-8-8--8~\---|
|-8--8--8--8-0--0--0-8-8-8-8--8~\--5--5--5--5-0--0--0-5-5-5-5--5~\---|
|-8--8--8--8-0--0--0-8-8-8-8--8~\--5--5--5--5-0--0--0-5-5-5-5--5~\---|
             .  .  .                          .  .  .

Breakdown
|--------------------------------------------|---------------------------|
|--------------------------------------------|---------------------------|
|--------------------------------------------|---------------------------|
|--------------------------------------------|---------------------------|
|-000-000-----00--000--00-00--000-000-----00-|-0-0--0-0--0--0-0--0-0--0--|
|-000-000-0~--00--000--00-00--000-000-0~--00-|-1-1--1-1--1--1-1--1-1--1--|
  ... ...     ..  ...  .. ..  ... ...     ..   * *  * *  *  * *  * *  *


|--------------------------------------------|-----------------------------|
|--------------------------------------------|-----------------------------|
|--------------------------------------------|-----------------------------|
|--------------------------------------------|-----------------------------|
|-000-000-----000---000-000-0--000--000-000--|-0-0--0-0--0--0-0--0-0--0-x2-|
|-000-000-0~--000---000-000-0--000--000-000--|-1-1--1-1--1--1-1--1-1--1----|
  ... ...     ...   ... ... .  ...  ... ...    * *  * *  *  * *  * *  *

Outro
|--------------------------------|
|--------------------------------|
|--------------------------------|
|--------------------------------|   x2
|--------------------------------|
|-/8--0-7--0-5-7--5-3-0-2-3-2-0--|

|--------------------------------------------------------------------------|
|--------------------------------------------------------------------------|
|--------------------------------------------------------------------------|
|------------------------------------------------------------------------0-|
|-----------------------------------------------------------5-7-0-7^[ph]-0-|
|-12--0-10--0-8-10--8-7-0-5-7-5-4---12--0-10--0-8-10--8-7-0-5-7-0--------0-|

Key:
. Palm Mute
* Tremolo Mute
~ Sustain
h Hammer On
p Pull Off
/ Slide Up
\ Slide Down
^ Pinch Harmonic/Artificial Harmonic[ph]





Comments


Popular Miss May I tabs & chords
Architect Tabs
Arms Of The Messiah Tabs
Colossal Tabs
Day By Day 1 Tabs
Forgive And Forget 2 Tabs
Monument Tabs
My Hardship Tabs
Our Kings Tabs
Sirens Song Tabs
We Have Fallen Tabs


Song lyrics



↑ Back to top | Tablatures and chords are parodies/interpretations of the original songs. You may use it for private study, scholarship, research or language learning purposes only
© 2014 AZChords.com Contact us | Privacy policy | DMCA | Add/correct tabs | Request tabs | Top 50 tabs