>
 >
Blessed By A Curse

Blessed By A Curse Guitar Tabs

Miss May I - Blessed By A Curse chords, tabs, tablatures, lyrics

Guitar lessons | Add/correct | Request | Top 50 tabs Artists:  A B C D E F G H I J K L M N O P Q R S T U V W X Y Z 0-9

Blessed By A Curse Guitar Tabs – Miss May I

CD, Sheet music, Poster

Do you like Blessed By A Curse? Share with your friends now
Tabs
|-----------------------------------------------|
|-----------------------------------------------|
|-----------------------------------------------|
|-----------------------------------------------|
|-0~----0~----0000000-0-0--0~----0~----0000000~-|
|-0~----0~----0000001-1-1--0~----0~----0000001~-|
              ....... . .              .......


|-----------------------------------------------------|
|-----------------------------------------------------|
|-----------------------------------------------------|
|-----------------------------------------------------|
|-0~--00000-0-0~--0000000-0-0-0-00000-0-0--8----------|
|-1~--11111-1-1~--1111111-1-1-1-11111-1-1---9796~-----|
      ..... . .   ......  . .              ^^^^^ not suree     

Tremolo 
|-----------------------------------|
|-----------------------------------|
|-----------------------------------|
|-----------------------------------|  x4
|--555-0-444-0-114------------------|
|--------------------88775577887744-|

2nd guitar plays after tremolo part above is played twice
|-----------------------------------------------|
|-----------------------------------------------|
|-----------------------------------------------| 
|-----------------------------------------------|  x2
|-121212-0-101010-0-8810----88775577887744------|
|-----------------------------------------------|


Pre Verse
|------------------------------------------------------------|
|------------------------------------------------------------|
|------------------------------------------------------------|
|------------------------------------------------------------|
|-----5-5-5--5-5-5--5-5-5--5-5-5--5-5-5--5-5-5--7-7-7--8-8-8-|
|-0000-0-0-00-0-0-00-0-0-00-0-0-55-5-5-55-5-5-55-5-5-55-5-5--|


|---------------------------------------------------|
|---------------------------------------------------|
|---------------------------------------------------|
|---------------------------------------------------|
|--------------0~-------8~----10-10-10-(pickslide)--|
|-(SHORT PAUSE-0~-------8~----10-10-10--------------|


Verse (both guitars)
|------------------------------------------------------------|
|------------------------------------------------------------|
|------------------------------------------------------------|
|------------------------------------------------------------| x2
|-----5-5-5--5-5-5--5-5-5--5-5-5--5-5-5--5-5-5--7-7-7--8-8-8-|
|-0000-0-0-00-0-0-00-0-0-00-0-0-55-5-5-55-5-5-55-5-5-55-5-5--|
  .... . . .. . . .. . . .. . . .. . . .. . . .. . . .. . . 

played 2nd time by 2nd guitar
|------------------------------------------------------------------|
|------------------------------------------------------------------|
|------------------------------------------------------------------|
|------------------------------------------------------------------|
|-----8-8-8--8-8-8--8-8-8--8-8-8--8-8-8--8-8-8--10-10-10--12-12-12-|
|-0000-0-0-00-0-0-00-0-0-00-0-0-88-8-8-88-8-8-88--8--8--88--8--8---|
  .... . . .. . . .. . . .. . . .. . . .. . . ..  .  .  ..  .  .


FILL
|------------------------------------------------------------------------|
|------------------------------------------------------------------------|
|------------------------------------------------------------------------|
|----------------------------------5h7p5---------------------------------|
|--3h5-3h5-5--8-8h7p5-3h5-3h5-5h7p8-----8----5-5-5--5-5-5--7-7-7--8-8-8--|
|-0----------0-0-----0-------0------------000-0-0-00-0-0-55-5-5-55-5-5---|
  .          . .     .       .            ... . . .. . . .. . . .. . .
continued
|--------------------------------------------------------------------------|
|--------------------------------------------------------------------------|
|--------------------------------------------------------------------------|
|-----------------------------8h7p5p0-8h7p5p0------------------------------|
|--3h5-3h5-5--8-8h7p5-3h5-3h5-------------------5-5-5--5-5-5--7-7-7--8-8-8-|
|-0----------0-0-----0-------0---------------000-0-0-00-0-0-55-5-5-55-5-5--|
  .          . .     .       .               ... . . .. . . .. . . .. . . 

2nd guitar
|-------------------------------------|
|-------------------------------------|
|-------------------------------------|
|-------------------------------------| x2
|-0----00000----000-0-8~--10~---------|
|-0----00000----000-0-8~--10~---------|
       ....



2nd verse
|-------------------------------------------------------------------------|
|-------------------------------------------------------------------------|
|-------------------------------------------------------------------------|x2
|-------------------------------------------------------------------------|
|-7h5-7-8-7------7h5-7-8-7-------10h8-10-12-10-------8h7-8-10-8-----------|
|----0-0-0-000000---0-0-0--555555----8--8--8--888888----7-7--7-777777-----|
     . . . ......   . . .            .  .  .  ......    . .  . 




|------------------------------------------------------------------------------|
|------------------------------------------------------------------------------|
|------------------------------------------------------------------------------|x2 
|------------------------------------------------------------------------------|
|-10------10--10-10-10------------10----10--10--7h5-7-8-7------7h5-7-8-7-------|
|---888888--88--8--8--101010101010--1010--10--10---0-0-0-000000---0-0-0-000000-|
    ......  ..  .  .  . . . . . .   . .   .   .    . . . ......   . . . .....
 

|----------------------------|
|----------------------------|
|----------------------------|
|-888888888-------888888888--|
|-555555555-0-0-0-555555555--|
|-555555555-0-0-0-555555555--|
            . . .

|----------------------------------------------------------------|
|----------------------------------------------------------------|
|----------------------------------------------------------------|
|--------------------------------8--8--8--8---------8-8-8-8--8---|
|-8--8--8--8-0--0--0-8-8-8-8--8--5--5--5--5-0--0--0-5-5-5-5--5---|
|-8--8--8--8-0--0--0-8-8-8-8--8--5--5--5--5-0--0--0-5-5-5-5--5---|
             .  .  .                        .  .  .

Quick/Odd Breakdown
|-----------------------------------------------------------------------|
|-----------------------------------------------------------------------|
|-----------------------------------------------------------------------|
|-----------------------------------------------------------------------|
|-000-000-----00--000--00-00--000-000-----00--0-0--0-0--0--0-0--0-0--0--|
|-000-000-0~--00--000--00-00--000-000-0~--00--1-1--1-1--1--1-1--1-1--1--|
  ^^^ ^^^ played very quickly


|--------------------------------------------|-----------------------------|
|--------------------------------------------|-----------------------------|
|--------------------------------------------|-----------------------------| 
|--------------------------------------------|-----------------------------|
|-000-000-----000---000-000-0--000--000-000--|-0-0--0-0--0--0-0--0-0--0-x2-|
|-000-000-0~--000---000-000-0--000--000-000--|-1-1--1-1--1--1-1--1-1--1----|
  ^^^ ^^^ played very quickly

|-------------------------------|
|-------------------------------|
|-------------------------------|
|-------------------------------|   x2
|-------------------------------|
|-8--0-7--0-5-7--5-3-0-2-3-2-0--|

|-------------------------------------------------------------------------|
|-------------------------------------------------------------------------|
|-------------------------------------------------------------------------|
|-------------------------------------------------------------------------|
|-----------------------------------------------------------5-7-0-7(ah)---|
|-12--0-10--0-8-10--8-7-0-5-7-5-4---12--0-10--0-8-10--8-7-0-5-7-0---------|





Comments


Popular Miss May I tabs & chords
A Dance With Aera Cura Bass Tabs
In Recognition Chords
Colossal 1 Tabs
Forgive And Forget Tabs
Forgive And Forget 3 Tabs
In Recognition Tabs
Masses Of A Dying Breed Tabs
Sirens Song Tabs
Swing Tabs
We Have Fallen Tabs


Song lyrics



↑ Back to top | Tablatures and chords are parodies/interpretations of the original songs. You may use it for private study, scholarship, research or language learning purposes only
© 2014 AZChords.com Contact us | Privacy policy | DMCA | Add/correct tabs | Request tabs | Top 50 tabs