>
 >
Architect 1

Architect 1 Guitar Tabs

Miss May I - Architect 1 chords, tabs, tablatures, lyrics

Guitar lessons | Add/correct | Request | Top 50 tabs Artists:  A B C D E F G H I J K L M N O P Q R S T U V W X Y Z 0-9

Architect 1 Guitar Tabs – Miss May I

CD, Sheet music, Poster

Do you like Architect 1? Share with your friends now
TabsTabs v2
Band: Miss May I

KEEP IN MIND THAT I WROTE THIS TAB BEFORE MISS MAY I'S PREMIERE CD CAME OUT.
 I RECENTLY BOUGHT IT, AND IT IS A DIFFERENT VERSION. ONLY SLIGHTLY.

Tuning: Drop C (C G C F A D)


PM or - = palm mute
T = tremolo pick
~ = hold note
* = harmonic
b = bend

2/12/09: Tab posted
2/12/09: Tab UPDATED - mistakes fixed, added more to tab.
3/25/09: Tab UPDATED - it's been a while, but, TAB FINISHED.
3/31/09: Tab UPDATED - fixed a few little mistakes.
4/9/09: Tab UPDATED - fixed final mistakes.
??????: Finishing adding the times to tab.

Intro I (0:03-0:17)

Guitars I,II
|-------------------------------------------------------------|
|-------------------------------------------------------------|
|-------------------------------------------------------------|
|-----------------------------8----7---5---7--5h7p5-----------|
|------5---7----8----7---5--------------------------8-7-5-7---|
|-0--0---0----0----0---0---0----0----0---0------------------0-|
PM   -   -    -    -   -   -    -    -   -          ---------

|-------------------------------------------------------------|
|-------------------------------------------------------------|
|---------------------------------------------5h7p5-----------|
|-----------------------------8----7---5---7--------8-7-5-7---|
|------5---7----8----7---5------------------------------------|
|-0--0---0----0----0---0---0----0----0---0------------------0-|
PM   -   -    -    -   -   -    -    -   -          ---------

|-------------------------------------------------------------|
|-------------------------------------------------------------|
|-------------------------------------------------------------|
|-----------------------------8----7---5---7--5h7p5-----------|
|------5---7----8----7---5--------------------------8-7-5-7---|
|-0--0---0----0----0---0---0----0----0---0------------------0-|
PM   -   -    -    -   -   -    -    -   -          ---------

|----------------------------------------------------|
|----------------------------------------------------|
|----------------------------------------------------|
|-----------------------------8----7---5---7---------|
|------5---7----8----7---5--------------------000----|
|-0--0---0----0----0---0---0----0----0---0----000----|
PM   -   -    -    -   -   -    -    -   -    ---

Intro II (0:17-0:34)

Guitar I
|-------------------------------------------------------------|
|-------------------------------------------------------------|
|-------------------------------------------------------------|
|-----------------------------8----7---5---7--5h7p5-----------|
|------5---7----8----7---5--------------------------8-7-5-7---|
|-0--0---0----0----0---0---0----0----0---0------------------0-|
PM   -   -    -    -   -   -    -    -   -          ---------

|-------------------------------------------------------------|
|-------------------------------------------------------------|
|---------------------------------------------5h7p5-----------|
|-----------------------------8----7---5---7--------8-7-5-7---|
|------5---7----8----7---5------------------------------------|
|-0--0---0----0----0---0---0----0----0---0------------------0-|
PM   -   -    -    -   -   -    -    -   -          ---------

|-------------------------------------------------------------|
|-------------------------------------------------------------|
|-------------------------------------------------------------|
|-----------------------------8----7---5---7--5h7p5-----------|
|------5---7----8----7---5--------------------------8-7-5-7---|
|-0--0---0----0----0---0---0----0----0---0------------------0-|
PM   -   -    -    -   -   -    -    -   -          ---------

|-------------------------------------------------------|
|-------------------------------------------------------|
|-------------------------------------------------------|
|-----------------------------8----7---5---7------------|
|------5---7----8----7---5--------------------000--000--|
|-0--0---0----0----0---0---0----0----0---0----000--000--|
PM   -   -    -    -   -   -    -    -   -    ---  ---

Guitar II

|-----------------------------------------------------------|
|-----------------------------------------------------------|
|-----------------------------7---5-------5-3h5p3-----------|
|----------5----7----5----------------8------------7-5-3-5--|
|------8-----------------8----------------------------------|
|-0--0---0----0----0---0---0----0---0---0-----------------0-|
PM   -   -    -    -   -   -    -    -  -          ---------

|------------------------------------------------------------------|
|------------------------------------------------------------------|
|-----------------------------7---5---------10h12p10---------------|
|----------5----7----5----------------8--10----------13-12-10-12---|
|------8-----------------8-----------------------------------------|
|-0--0---0----0----0---0---0----0---0---0------------------------0-|
PM   -   -    -    -   -   -    -    -  -            -------------

|-----------------------------------------------------------|
|-----------------------------------------------------------|
|-----------------------------7---5-------5-3h5p3-----------|
|----------5----7----5----------------8------------7-5-3-5--|
|------8-----------------8----------------------------------|
|-0--0---0----0----0---0---0----0---0---0-----------------0-|
PM   -   -    -    -   -   -    -    -  -          ---------

|------------------------------------------------------|
|------------------------------------------------------|
|-----------------------------7---5-------5------------|
|----------5----7----5----------------8----------------|
|------8-----------------8-------------------000--000--|
|-0--0---0----0----0---0---0----0---0---0----000--000--|
PM   -   -    -    -   -   -    -    -  -    ---  ---

(0:35-0:50) play twice

Guitars I, II
|-------------------------------------------------------------|
|-------------------------------------------------------------|
|-------------------------------------------------------------|
|-------------------------------------------------------------|
|-------8---5---5---5---5---5-------7---4---4---4---4---4---4-|
|-8--8----8---8---8---8---8----7--7---7---7---7---7---7---7---|
PM   -    -   -   -   -   -       -   -   -   -   -   -   -

|------------------------------------------------------------|
|------------------------------------------------------------|
|------------------------------------------------------------|
|------------------------------------------------------------|
|-------8-----------------------8----------------------------|
|-0--7-----0--5--8--7--5--0--7-----0--5--8--7--5-------------|
     T  T  T  T  T  T  -     T  T  T  T  T  T  -

(0:50-1:02)

Guitar I
|-----------------------------------|
|-----------------------------------|
|-----------------------------------|
|-------7---------------5-----------|
|------------8~--------------7~-----|
|-8--8----8-------7--7-----7--------|
PM   -    -          -     -

Guitar II
|---------------------------------|
|---------------------------------|
|---------------------------------|
|---------------------------------|
|-------8----5~--------7---4~-----|
|-8--8----8-------7--7---7--------|
PM   -    -          -   -

Guitar I
|--------------------------------------------------|
|--------------------------------------------------|
|--------------------------------------------------|
|--------------------------------------------------|
|-------8-----------------------8------------------|
|-0--7-----0--5--8--7--5--0--7-----0--5--8--7--5---|
     T  T  T  T  T  T  -     T  T  T  T  T  T  -

Guitar II
|--------------------------------------------------|
|--------------------------------------------------|
|--------------------------------------------------|
|-------7-----------------------7------------------|
|----5--------5--8--7--5-----5--------5--8--7--5---|
|-0--------0--------------0--------0---------------|
     T  T  T  T  T  T  -     T  T  T  T  T  T  -

Guitar I
|-----------------------------------|
|-----------------------------------|
|-----------------------------------|
|-------7---------------5-----------|
|------------8~--------------7~-----|
|-8--8----8-------7--7-----7--------|
PM   -    -          -     -

Guitar II
|---------------------------------|
|---------------------------------|
|---------------------------------|
|---------------------------------|
|-------8----5~--------7---4~-----|
|-8--8----8-------7--7---5--------|
PM   -    -          -   -

(1:03-1:17) play twice

Guitar I
|------------------------------------------|
|------------------------------------------|
|------------------------------------------|
|------------------------------------------|
|-0~--0-0-0-0-0-0-000--0-0-0-0-0-000--3*b--|
|-0~--0-0-0-0-0-0-000--0-0-0-0-0-000-------|
PM    - - - - - - ---  - - - - - ---

|----------------------------------|
|----------------------------------|
|----------------------------------|
|-------------------------3--------|
|-0-0-0-0-0-0-000---1-3-4---3-4-2--|
|-0-0-0-0-0-0-000------------------|
PM- - - - - - ---   - - -   - - -

Guitar II
|------------------------------------------|
|------------------------------------------|
|------------------------------------------|
|------------------------------------------|
|-0~--0-0-0-0-0-0-000--0-0-0-0-0-000-------|
|-0~--0-0-0-0-0-0-000--0-0-0-0-0-000--3*b--|
PM    - - - - - - ---  - - - - - ---

|----------------------------------|
|----------------------------------|
|----------------------------------|
|-------------------------7--------|
|-0-0-0-0-0-0-000---5-7-8---7-8-6--|
|-0-0-0-0-0-0-000------------------|
PM- - - - - - ---   - - -   - - -

(1:18-1:31)

Guitar I
|------------------------------------------|
|------------------------------------------|
|------------------------------------------|
|------------------------------------------|
|-0~--0-0-0-0-0-0-000~-0-0-0-0-0-000--000--|
|-1~--1-1-1-1-1-1-111~-1-1-1-1-1-111~-111~-|
PM    - - - - - - ---  - - - - - ---

|----------------------------------|
|----------------------------------|
|----------------------------------|
|-------------------------3--------|
|-0-0-0-0-0-0-000~--1-3-4---3-4-2--|
|-1-1-1-1-1-1-111~-----------------|
PM- - - - - - ---   - - -   - - -

Guitar II
|------------------------------------------|
|------------------------------------------|
|------------------------------------------|
|------------------------------------------|
|-0~--0-0-0-0-0-0-000~-0-0-0-0-0-000~-000~-|
|-1~--1-1-1-1-1-1-111~-1-1-1-1-1-111~-111~-|
PM    - - - - - - ---  - - - - - ---

|----------------------------------|
|----------------------------------|
|----------------------------------|
|-------------------------7--------|
|-0-0-0-0-0-0-000~--5-7-8---7-8-6--|
|-1-1-1-1-1-1-111~-----------------|
PM- - - - - - ---   - - -   - - -

(1:32-1:47) play twice

Guitars I,II
|------------------------------|
|------------------------------|
|------------------------------|
|------------------------------|
|--------------8--7-5-7--5-----|
|-0--5-7-8-7-5-------------8p7-|

|------------------------------|
|------------------------------|
|------------------------------|
|------------------------------|
|--------------8--7-5-7--5-----|
|-0--5-7-8-7-5-------------8p7-|

|--------------------------------|
|--------------------------------|
|--------------------------------|
|--------5-7-8/10--8-7-8---------|
|----7-8------------------10-8-7-|
|-8------------------------------|

|--------------------------|
|--------------------------|
|--------------------------|
|--------5-7-8-7--5----5---|
|----7-8------------8----7-|
|-7------------------------|

on second time, end on this:
|---------------------------------------------|
|---------------------------------------------|
|-14-14-14-14-12-12-12-12-9-9-9-9-10-10-10-10-|
|--x--x--x--x--x--x--x--x-x-x-x-x--x--x--x--x-|
|-12-12-12-12-10-10-10-10-7-7-7-7--8--8--8--8-|
|---------------------------------------------|

(1:47 - 2:34)

Guitars I, II
|--------------------------------------------|
|--------------------------------------------|
|--------------------------------------------|
|--------------------------------------------|
|-5--5-5-5-5-5-5-5---5-5-5-5-5-5-5-5-8-8-8-8-|
|-5--5-5-5-5-5-5-5---5-5-5-5-5-5-5-5-8-8-8-8-|

|-----------------------------------------------|
|-----------------------------------------------|
|-----------------------------------------------|
|-----------------------------------------------|
|-0--0-0-0-0--00-00-00--0--0-0-0-0-0-0-00-00-00-|
|-0--0-0-0-0--00-00-00--0--0-0-0-0-0-0-00-00-00-|
PM   - - - -  -- -- --     - - - - - - -- -- --

(2:08 - 2:11)
random filler
|----------------------------| |----------------------------|
|----------------------------| |----------------------------|
|----------------------------| |----------------------------|
|----------------------------| |-7-5--------------------5-7-|
|-8-7-5-0--0-0-0-0-0-0-5-7-8-| |-----8-0--0-0-0-0-0-0-8-----|
|-------0--0-0-0-0-0-0-------| |-------0--0-0-0-0-0-0-------|
PM         - - - - - -         PM         - - - - - -

(2:34 - 2:38)

|---------------------------------------|
|---------------------------------------|
|---------------------------------------|
|---------------------------------------|
|---------------------------------------|
|-00--00--00--00--000000--(bass slide)--|
PM--  --  --  --  ------

( : - : )

|---------------------------------------|
|---------------------------------------|
|---------------------------------------|
|---------------------------------------|
|---------------------------------------|
|-000--000--000--000--000000--000--000--|
PM---  ---  ---  ---  ------  ---  ---

|---------------------------------------|
|---------------------------------------|
|---------------------------------------|
|---------------------------------------|
|-----------------------------8-7--0~---|
|-000--000--000--000--000000--8-7--1~---|
PM---  ---  ---  ---  ------  - -  -

( : - : ) play twice

|---------------------------------|
|---------------------------------|
|---------------------------------|
|---------------------------------|
|-000~-000~-000~-000~-0000000000--|
|-111~-111~-111~-111~-1111111111--|
PM---  ---  ---  ---  ----------

Outro ( : - : )

Guitar I
|-----------------------------------------|
|-----------------------------------------|
|-----------------------------------------|
|-----------------------------------------|
|-----------7-8-10------12------12-8-10---|
|--5---7-8----------0--------0------------|
   T   T T  T T  T  T    T   T   T T  T

Guitar II
|---------------------------------------|
|---------------------------------------|
|---------------------------------------|
|-----------5-7-9-----------------------|
|--1---3-5--------------8-------8-5-7---|
|-------------------0--------0----------|
   T   T T  T T T  T    T    T  T T T


Will finish the times later. I have work to do.





Comments


Popular Miss May I tabs & chords
Arms Of The Messiah Tabs
Forgive And Forget Tabs
Forgive And Forget 4 Tabs
Live This Life Intro Tabs
Lullaby For A Beast Tabs
Masses Of A Dying Breed Tabs
Monument Tabs
Relentless Chaos 1 Tabs
Relentless Chaos 3 Tabs
In Recognition Ukulele


Song lyrics



↑ Back to top | Tablatures and chords are parodies/interpretations of the original songs. You may use it for private study, scholarship, research or language learning purposes only
© 2014 AZChords.com Contact us | Privacy policy | DMCA | Add/correct tabs | Request tabs | Top 50 tabs