>
 >
Architect

Architect Guitar Tabs

Miss May I - Architect chords, tabs, tablatures, lyrics

Guitar lessons | Add/correct | Request | Top 50 tabs Artists:  A B C D E F G H I J K L M N O P Q R S T U V W X Y Z 0-9

Architect Guitar Tabs – Miss May I

CD, Sheet music, Poster

Do you like Architect? Share with your friends now
TabsTabs v2
BAND- MISS MAY I
SONG- ARCHITECTS
TUNING- DROP C


i(rsxkilla) spent some time working on this song i feel its much more accurate.


updated-jan26, 2010

|----------------------------------------------------------------|
|----------------------------------------------------------------|
|----------------------------------------------------------------|
|------------------------------8----7------7--7h8p7--------------|
|-------5---8----7----5---------------10--------------10-8-7-8---|
|-0-5p7---0----0----0----0-0-----0-------------------------------|

|----------------------------------------------------------------|
|----------------------------------------------------------------|
|---------------------------------------------7h8p7--------------|
|------------------------------8----7------7----------10-8-7-8---|
|-------5---8----7----5---------------10-------------------------|
|-0-5p7---0----0----0-----0-0----0-------------------------------|

|----------------------------------------------------------------|
|----------------------------------------------------------------|
|----------------------------------------------------------------|
|------------------------------8----7------7--7h8p7--------------|
|-------5---8----7----5---------------10--------------10-8-7-8---|
|-0-5p7---0----0----0----0-0-----0-------------------------------|

|----------------------------------------------------------------|
|----------------------------------------------------------------|
|----------------------------------------------------------------|
|------------------------------8----7------7---------------------|
|-------5---8----7----5---------------10------000----------------|
|-0-5p7---0----0----0-----0-0----0------------000----------------|

|----------------------------------------------------------------|
|----------------------------------------------------------------|
|----------------------------------------------------------------|
|------------------------------8----7------7--7h8p7--------------|
|-------5---8----7----5---------------10--------------10-8-7-8---|
|-0-5p7---0----0----0-----0-0----0-------------------------------|

|----------------------------------------------------------------|
|----------------------------------------------------------------|
|---------------------------------------------7h8p7--------------|
|------------------------------8----7------7----------10-8-7-8---|
|-------5---8----7----5---------------10-------------------------|
|-0-5p7---0----0----0-----0-0----0-------------------------------|

|----------------------------------------------------------------|
|----------------------------------------------------------------|
|----------------------------------------------------------------|
|------------------------------8----7------7--7h8p7--------------|
|-------5---8----7----5---------------10--------------10-8-7-8---|
|-0-5p7---0----0----0----0-0-----0-------------------------------|

|----------------------------------------------------------------|
|----------------------------------------------------------------|
|----------------------------------------------------------------|
|------------------------------8----7------7---------------------|
|-------5---8----7----5---------------10------000-000------------|
|-0-5p7---0----0----0-----0-0----0------------000-000------------|

|-------------------------------------------------------------|
|-------------------------------------------------------------|
|-------------------------------------------------------------|
|-------------------------------------------------------------|
|-------8---5---5---5---5---5-------7---4---4---4---4---4---4-|
|-8--8----5---5---5---5---5----7--7---7---7---7---7---7---7---|


|------------------------------------------------------------|
|------------------------------------------------------------|
|------------------------------------------------------------|
|------------------------------------------------------------|
|-------8-----7-----------------8-----7----------------------|
|-0--5-----5-----8--7--5--0--5-----5-----8--7--5--0----------|both bars 2x
     T  T  T  T  T  T  -     T  T  T  T  T

|-----------------------------------|
|-----------------------------------|
|-----------------------------------|
|-----------------------------------|
|------12-----8~-------10-----7~----|
|-8--8----8-------7--7-----7--------|

|------------------------------------------------------------|
|------------------------------------------------------------|
|------------------------------------------------------------|
|------------------------------------------------------------|
|-------8-----7-----------------8-----7----------------------|
|-0--5-----5-----8--7--5--0--5-----5-----8--7--5--0----------|both bars 2x
     T  T  T  T  T  T  -     T  T  T  T  T

|------------------------------------------|
|------------------------------------------|
|------------------------------------------|
|------------------------------------------|
|-0~--0-0-0-0-0-0-000--0-0-0-0-0-000--3*b--|
|-0~--0-0-0-0-0-0-000--0-0-0-0-0-000-------|
PM    - - - - - - ---  - - - - - ---

|----------------------------------|
|----------------------------------|
|----------------------1-4-1-3-1---|
|------------------3-4-------------|
|-0-0-0-0-0-0-000------------------|
|-0-0-0-0-0-0-000------------------|2x
PM- - - - - - ---   - - -   - - -

|------------------------------------------|
|------------------------------------------|
|------------------------------------------|
|------------------------------------------|
|-0~--0-0-0-0-0-0-000~-0-0-0-0-0-000--000--|
|-1~--1-1-1-1-1-1-111~-1-1-1-1-1-111~-111~-|
PM    - - - - - - ---  - - - - - ---

|----------------------------------|
|----------------------------------|
|-----------------------1-4-1-3-1--|
|-------------------3-4------------|
|-0-0-0-0-0-0-000~-----------------|
|-1-1-1-1-1-1-111~-----------------|
PM- - - - - - ---   - - -   - - -

|------------------------------|
|------------------------------|
|------------------------------|
|------------------------------|
|--------------8--7-5-7--5-----|
|-0--5-7-8-7-5-------------8p7-|

|------------------------------|
|------------------------------|
|------------------------------|
|------------------------------|
|--------------8--7-5-7--5-----|
|-0--5-7-8-7-5-------------8p7-|

|--------------------------------|
|--------------------------------|
|--------------------------------|
|--------5-7-8/10--8-7-8---------|
|----7-8------------------10-8-7-|
|-8------------------------------|

|--------------------------|
|--------------------------|
|--------------------------|
|--------5-7-8-7--5----5---|
|----7-8------------8----7-|
|-7------------------------|


|---------------------------------------------|
|---------------------------------------------|
|-14-14-14-14-12-12-12-12-9-9-9-9-10-10-10-10-|
|--x--x--x--x--x--x--x--x-x-x-x-x--x--x--x--x-|
|-12-12-12-12-10-10-10-10-7-7-7-7--8--8--8--8-|
|---------------------------------------------|

|--------------------------------------------|
|--------------------------------------------|
|--------------------------------------------|
|--------------------------------------------|
|-5--5-5-5-5-5-5-5---5-5-5-5-5-5-5-5-5-5-5-5-|
|-5--5-5-5-5-5-5-5---5-5-5-5-5-5-5-5-5-5-5-5-|

|-----------------------------------------------|
|-----------------------------------------------|
|-----------------------------------------------|
|-----------------------------------------------|
|-0--0-0-0-0--00-00-00--0--0-0-0-0-0-0-00-00-00-|
|-0--0-0-0-0--00-00-00--0--0-0-0-0-0-0-00-00-00-|4x

fillers for part above(3rd time)                     (4th time)
|----------------------------| |----------------------------|
|----------------------------| |----------------------------|
|----------------------------| |----------------------------|
|----------------------------| |-7-5--------------------5-7-|
|-8-7-5-0--0-0-0-0-0-0-5-7-8-| |-----8-0--0-0-0-0-0-0-8-----|
|-------0--0-0-0-0-0-0-------| |-------0--0-0-0-0-0-0-------|
PM         - - - - - -         PM         - - - - - -


breakdown comes now
figure out the rhythm lol
|---------------------------------------|
|---------------------------------------|
|---------------------------------------|
|---------------------------------------|
|---------------------------------------|
|-000--000--000--000--000000--000--000--|




|---------------------------------------|
|---------------------------------------|
|---------------------------------------|
|---------------------------------------|
|-----------------------------8-7--0~---|
|-000--000--000--000--000000--8-7--1~---|

|---------------------------------|
|---------------------------------|
|---------------------------------|
|---------------------------------|
|-000~-000~-000~-000~-0000000000--|
|-111~-111~-111~-111~-1111111111--|

|-----------------------------------------|
|-----------------------------------------|
|-----------------------------------------|
|-----------------------------------------|
|-----------7-8-10------12------12-8-10---|
|--5---7-8----------0--------0------------|
   T   T T  T T  T  T    T   T   T T  T





Comments


Popular Miss May I tabs & chords
Relentless Chaos 2 Bass Tabs
Forgive And Forget 2 Tabs
Forgive And Forget 4 Tabs
Forgive And Forget 5 Tabs
Harlots Breath Intro Tabs
Monument Tabs
Monument 1 Tabs
Relentless Chaos 2 Tabs
Tides Tabs
Unfortunate Engagement Tabs


Song lyrics



↑ Back to top | Tablatures and chords are parodies/interpretations of the original songs. You may use it for private study, scholarship, research or language learning purposes only
© 2014 AZChords.com Contact us | Privacy policy | DMCA | Add/correct tabs | Request tabs | Top 50 tabs