>
 >
Apologies Are For The Weak 1

Apologies Are For The Weak 1 Guitar Tabs

Miss May I - Apologies Are For The Weak 1 chords, tabs, tablatures, lyrics

Guitar lessons | Add/correct | Request | Top 50 tabs Artists:  A B C D E F G H I J K L M N O P Q R S T U V W X Y Z 0-9

Apologies Are For The Weak 1 Guitar Tabs – Miss May I

CD, Sheet music, Poster

Do you like Apologies Are For The Weak 1? Share with your friends now
TabsTabs v2Tabs v3
esrock.net

Apologies Are For The Weak
Miss May I

Tunning : Drop C (CGCFAD)


   Intro (00:00)
   Gtr 1 & 2
D||-----------------------------|----------------------------------||
A||-----------------------------|----------------------------------||
F||-----------------------------|----------------------------------||
C||-----------------------------|----------------------------------||
G||--0-0-0--0--0-0-0--0--0-0-0--|--0--0-0-0-0-0-0-0-0-0-0-0-0-0-0--||
C||--1-1-1--1--1-1-1--1--1-1-1--|--1--1-1-1-1-1-1-1-1-1-1-1-1-1-1--||
     - - -  -  - - -  -  - - -     -  - - - - - - - - - - - - - -

 Main Riff (00:04)
 Gtr 1
||----------------------------------|----------------------------------|
||----------------------------------|----------------------------------|
||----------------------------------|----------------------------------|
||----------------------------------|----------------------------------|
||--5---7-------5---7-------7---8---|-5---7-------5---8-7-5-7-5--------|
||----0---0-0-0---0---0-0-0---0---0-|---0---0-0-0---0-----------8-7-5--|
|     -   - - -   -   - - -   -   -     -   - - -   -
|Gtr 2 
||----------------------------------|--------------------------------------|
||----------------------------------|--------------------------------------|
||----------------------------------|--------------------------------------|
||--0-------------------------------|-0------------------------------------|
||--0-----------------------0-0-0-0-|-0--------------12-10-8-10-8----------|
||--0-----------------------0-0-0-0-|-0---------------------------12-10-8--|
                            - - - -

 Gtr 1
|--------------------------------------|-------------------------------|
|--------------------------------------|-------------------------------|
|--------------------------------------|-------------------------------|
|--------------------------------------|-------------------------------|
|--8---10-------8---10-------10---12---|-8---10-------8---10-------8---|
|----8----8-8-8---8----8-8-8----8----8-|---8----8-8-8---8----8-8-8-7---|
|    -    - - -   -    - - -    -    -     -    - - -   -    - - -
|Gtr 2
|--------------------------------------|-------------------------------|
|--------------------------------------|-------------------------------|
|--------------------------------------|-------------------------------|
|--8-----------------------------------|-10\---------------------------|
|--8-----------------------------------|-10\--------------8--------8---|
|--8-----------------------------------|-10\--------------8--------7---|


 Gtr 1 & 2
|----------------------------------|-----------------------------------|
|----------------------------------|-----------------------------------|
|----------------------------------|-----------------------------------|
|----------------------------------|-----------------------------------|
|--5---7-------5---7-------7---8---|-5---7-------5---8-7-5-7-5---------|
|----0---0-0-0---0---0-0-0---0---0-|---0---0-0-0---0-----------8-7-5---|\
|    -   - - -   -   - - -   -   -     -   - - -   -                     2X
|--------------------------------------|-------------------------------|/
|--------------------------------------|-------------------------------|
|--------------------------------------|-------------------------------|
|--------------------------------------|-------------------------------|
|--8---10-------8---10-------10---12---|-8---10-------8---10-------8---|
|----8----8-8-8---8----8-8-8----8----8-|---8----8-8-8---8----8-8-8-7---|
     -    - - -   -    - - -    -    -     -    - - -   -    - - -

 Gtr 1 (00:25)
|----------------------------------|-----------------------------------|        |
|----------------------------------|-----------------------------------|        |
|----------------------------------|-----------------------------------|        |
|----------------------------------|-----------------------------------|        |
|--5---7-------5---7-------7---8---|-5---7-------5---8-7-5-7-5---------|        |
|----0---0-0-0---0---0-0-0---0---0-|---0---0-0-0---0-----------8-7-5---|        |
|    -   - - -   -   - - -   -   -     -   - - -   -                            |
|Gtr 2                                                                          |
|------------------------------------|----------------------------------------| |
|------------------------------------|----------------------------------------| |
|------------------------------------|----------------------------------------| |
|------------------------------------|----------------------------------------| |
|--8---10-------8---10-------10---12-|-8---10-------8---12-10-8-10-8----------| |
|----0----0-0-0---0----0-0-0----0----|---0----0-0-0---0--------------12-10-8--| |
     -    - - -   -    - - -    -        -    - - -   -                         |
                                                                                2X
 Gtr 1                                                                          |
|--------------------------------------|-------------------------------|        |
|--------------------------------------|-------------------------------|        |
|--------------------------------------|-------------------------------|        |
|--------------------------------------|-------------------------------|        |
|--8---10-------8---10-------10---12---|-8---10-------8---10-------8---|        |
|----8----8-8-8---8----8-8-8----8----8-|---8----8-8-8---8----8-8-8-7---|        |
|    -    - - -   -    - - -    -    -     -    - - -   -    - - -              |
|Gtr 2                                                                          |
|------------------------------------|-------------------------------|          |
|------------------------------------|-------------------------------|          |
|------------------------------------|-------------------------------|          |
|--7---8-------7---8-------8---10----|--7---8-------7---8------------|          |
|------------------------------------|--------------------------8----|          |
|----8---8-8-8---8---8-8-8---8----8--|----8---8-8-8---8---8-8-8-7----|          |
     -   - - -   -   - - -   -    -       -   - - -   -   - - -


 Verse 1 (4X)(00:39)
 Gtr 1 & 2
||--------------------------------------|----------------------------------|
||--------------------------------------|----------------------------------|
||--------------------------------------|----------------------------------|
||--------------------------------------|------------------3h5p3p2-3p2-----|
||--12-----------------------10h12p10p8-|-10-0-0-0-0-0-0-0-------------3h5-|
||-----8-8-8-8-8-8-8-8-8-8-8------------|----------------------------------|
|      - - - - - - - - - - -                 - - - - - - -                   
|----------------------------------|--------------------------------------||
|----------------------------------|--------------------------------------||
|----------------------------------|--------------------------------------||
|----------------------------------|--------------------------------------||
|--5-------------------------------|-8-8-8-8-8-8-8-8-8h10-10-10-10-10-8---||
|----0-0-0-0-0-0-0-0-0-0-0-0-0-0-0-|------------------------------------0-||
     - - - - - - - - - - - - - - -     - -   - -   -      -     -  -    -


 Verse 2 (01:07)
 Gtr 1
||--------------------------------|----------------------------------|
||--------------------------------|----------------------------------|
||--------------------------------|----------------------------------|
||--------------------------------|----------------------------------|
||--------------------------------|-----------------5----------------|
||--0--0-0-0-0-0-0-0-0-0-0-0-0-1--|--0--0-0-0-0-0-0---8-5-8----------|
|                                                     - - -
|Gtr 2
||--------------------------------|----------------------------------|
||--------------------------------|----------------------------------|
||--------------------------------|----------------------------------|
||--------------------------------|----------------------------------|
||--------------------------------|-------------------------4--------|
||--0--0-0-0-0-0-0-0-0-0-0-0-0-1--|--0--0-0-0-0-0-0-----------7-4-7--|
                                                              - - -

 Gtr 1 & 2
|--------------------------------|-------------------------|
|--------------------------------|-------------------------|
|--------------------------------|-------------------------|
|--------------------------------|-------------------------|
|--------------------------------|-------------------------|
|--0--0-0-0-0-0-0-0-0-0-0-0-0-1--|-/8---7---5--4---5---4---|


 Gtr 1
|--------------------------------|----------------------------------|
|--------------------------------|----------------------------------|
|--------------------------------|----------------------------------|
|--------------------------------|----------------------------------|
|--------------------------------|-----------------5-------4--------|
|--0--0-0-0-0-0-0-0-0-0-0-0-0-1--|--0--0-0-0-0-0-0---8-5-8---7-4-7--|
|                                                    - - -   - - -
|Gtr 2
|--------------------------------|-------------------------------------|
|--------------------------------|-------------------------------------|
|--------------------------------|-------------------------------------|
|--------------------------------|-------------------------------------|
|--------------------------------|-----------------8---------7---------|
|--0--0-0-0-0-0-0-0-0-0-0-0-0-1--|--0--0-0-0-0-0-0---11-8-11---10-7-10-|
                                                     -  - -    -  - -

 Gtr 1
|---------------------------------|-------------------------||
|---------------------------------|-------------------------||
|---------------------------------|-------------------------||
|---------------------------------|-------------------------||
|-----------------------------5*b-|-------------------------||
|--0--0-0-0-0-0-0-0-0-0-0-0-0-----|-/8---7---5--4---5---4---||
|
|Gtr 2
|---------------------------------|-------------------------||
|---------------------------------|-------------------------||
|---------------------------------|-------------------------||
|---------------------------------|-------------------------||
|---------------------------------|-/5---4---1--0---1---0---||
|--0--0-0-0-0-0-0-0-0-0-0-0-0-3*b-|-------------------------||


 Verse 3 (2X) (01:22)
 Gtr 1
||----------------------------------|---------------------------------|
||----------------------------------|---------------------------------|
||----------------------------------|---------------------------------|
||----------------------------------|---------------------------------|
||--8-----------8---8-------8---8---|-8-----------8---8-------8-------|
||----5-5-5-5-5---5---5-5-5---5---5-|---5-5-5-5-5---5---5-5-5---5-5-7-|
|     - - - - -   -   - - -   -   -     - - - - -   -   - - -   - - -
|Gtr 2
||----------------------------------|---------------------------------|
||----------------------------------|---------------------------------|
||----------------------------------|---------------------------------|
||--7-----------7---7-------7---7---|-7-----------7---7-------7-------|
||----------------------------------|---------------------------------|
||----5-5-5-5-5---5---5-5-5---5---5-|---5-5-5-5-5---5---5-5-5---5-5-7-|
      - - - - -   -   - - -   -   -     - - - - -   -   - - -   - - -

 Gtr 1
|----------------------------------|-------------------------------||
|----------------------------------|-------------------------------||
|----------------------------------|---Tremolo-Picking-------------||
|----------------------------------|-------------------------------||
|--5-----------5---5-------5---5---|-5--4--5--7--8--7--8--10-------||
|----8-8-8-8-8---8---8-8-8---8---8-|-------------------------------||
|    - - - - -   -   - - -   -   -
|Gtr 2
|----------------------------------|-------------------------------||
|----------------------------------|-------------------------------||
|----------------------------------|---Tremolo-Picking-------------||
|--5-----------5---5-------5---5---|-------------------------------||
|----------------------------------|-8--7--8--10--12--10--12--13---||
|----8-8-8-8-8---8---8-8-8---8---8-|-------------------------------||
     - - - - -   -   - - -   -   -

 Chorus (01:36)
 Gtr 1 & 2
||-----------|-------------|-----------|-----------|
||-----------|-------------|-----------|-----------|
||-----------|-------------|-----------|-----------|
||--8--------|--7----------|-3---------|--2--------|2X
||--8--------|--8------0-0-|-3---------|--3--------|
||--8--------|--7------0-0-|-3---------|--2--------|
                       - -
|----------------------------------|---------------------------------|
|----------------------------------|---------------------------------|
|----------------------------------|---------------------------------|
|----------------------------------|---------------------------------|
|--8-8-8-8-8-8-8-8-8-8-8-8-8-8-8-8-|-8-8-8-8-8-8-8-8-8-8-8-8-8-8-8-8-|
|--8-8-8-8-8-8-8-8-8-8-8-8-8-8-8-8-|-7-7-7-7-7-7-7-7-7-7-7-7-7-7-7-7-|\
|  - - - - - - - - - - - - - - - -   - - - - - - - - - - - - - - - -   \
                                                                       2X
----------------------------------|---------------------------------|| /
----------------------------------|---------------------------------||/
----------------------------------|---------------------------------||
----------------------------------|---------------------------------||
--3-3-3-3-3-3-3-3-3-3-3-3-3-3-3-3-|-3-3-3-3-3-3-3-3-3-3-3-3-3-3-3-3-||
--3-3-3-3-3-3-3-3-3-3-3-3-3-3-3-3-|-2-2-2-2-2-2-2-2-2-2-2-2-2-2-2-2-||
   - - - - - - - - - - - - - - - -   - - - - - - - - - - - - - - - -

 Pre-Breakdown (02:04)
 Gtr 1 & 2
||--------|------------------|--------|----------------------------|
||--------|------------------|--------|----------------------------|
||--------|------------------|--------|----------------------------|
||--0-----|------------------|--0-----|----------------------------|
||--0-----|------------------|--0-----|-1111-----------------------|
||--0-----|------0-0-0-1--4--|--0-----|-----44441--0--11114--1--0--|
                 - - - -  -

|--------|------------------|--------|
|--------|------------------|--------|
|--------|------------------|--------|
|--0-----|------------------|--0-----|
|--0-----|------------------|--0-----|
|--0-----|------0-0-0-1--4--|--0-----|
                - - - -  -
 Gtr 1
|----------------------------||
|----------------------------||
|----------------------------||
|----------------------------||
|---1111----------0-0--------||
|-------44441--0--0-0--------||
|                 - -
|Gtr 2
|----------------------------||
|----------------------------||
|----------------------------||
|----------------------------||
|---1111---------------0-0---||
|-------44441--0-------0-0---||
                       - -

 Breakdown (02:19)
 Gtr 1                  
||-------------------------|-------------------------| |
||-------------------------|-------------------------| |
||-------------------------|-------------------------| |
||-------------------------|-------------------------| |
||--000---000----0-0--0-0--|--000--000--000----000---| |
||--000---000----0-0--0-0--|--000--000--000----000---| |
|   ---   ---    - -  - -     ---  ---  ---    ---     |
|Gtr 2                                                 |
||-------------------------|-------------------------| |
||-------------------------|-------------------------| |
||-------------------------|-------------------------| |
||-------------------------|-------------------------| |
||--000---000----0-0--0-0--|--000--000--000----------| |
||--000---000----0-0--0-0--|--000--000--000----------| |
    ---   ---    - -  - -     ---  ---  ---            |
                                                       2X
 Gtr 1                                                 |
|-------------------------|--------------------------| |
|-------------------------|--------------------------| |
|-------------------------|--------------------------| |
|-------------------------|--------------------------| |
|--------000----0-0--0-0--|--------------------------| |
|--------000----0-0--0-0--|--/8---7---5--4---5---4---| |
|        ---    - -  - -                               |
|Gtr 2                                                 |
|-------------------------|--------------------------| |
|-------------------------|--------------------------| |
|-------------------------|--------------------------| |
|-------------------------|--------------------------| |
|--000---000----0-0--0-0--|--------------------------| |
|--000---000----0-0--0-0--|--/8---7---5--4---5---4---| |
   ---   ---    - -  - -

 Gtr 1 (02:33)
|-------------------------|-------------------------|
|-------------------------|-------------------------|
|-------------------------|-------------------------|
|-------------------------|-------------------------|
|--0-0---0-0----0-0--0-0--|--0-0--0-0--0-0----000---|
|--0-0---0-0----0-0--0-0--|--0-0--0-0--0-0----000---|
|  - -   - -    - -  - -     - -  - -  - -    ---
|Gtr 2
|-------------------------|-------------------------|
|-------------------------|-------------------------|
|-------------------------|-------------------------|
|-------------------------|-------------------------|
|--0-0---0-0----0-0--0-0--|--0-0--0-0--0-0----------|
|--0-0---0-0----0-0--0-0--|--0-0--0-0--0-0----------|
   - -   - -    - -  - -     - -  - -  - - 

 Gtr 1
|-------------------------|-------------------------|
|-------------------------|-------------------------|
|-------------------------|-------------------------|
|-------------------------|-------------------------|
|--------0-0----0-0--0-0--|-------------------------|
|--------0-0----0-0--0-0--|--/8---7---5--4---5--/12-|
|        - -    - -  - -
|Gtr 2
|-------------------------|-------------------------|
|-------------------------|-------------------------|
|-------------------------|-------------------------|
|-------------------------|-------------------------|
|--000---0-0----0-0--0-0--|--/5---4---1--0---1--/8--|
|--000---0-0----0-0--0-0--|-------------------------|
   ---   - -    - -  - -

 Gtr 1
|-------------------------|-------------------------|
|-------------------------|-------------------------|
|-------------------------|-------------------------|
|-------------------------|-------------------------|
|---------000----0-0--0-0-|--000--000--000----000---|
|--(12)\--000----0-0--0-0-|--000--000--000----000---|
|         ---    - -  - -    ---  ---  ---    ---
|Gtr 2
|-------------------------|-------------------------|
|-------------------------|-------------------------|
|-------------------------|-------------------------|
|-------------------------|-------------------------|
|--(8)\---000----0-0--0-0-|--000--000--000----------|
|---------000----0-0--0-0-|--000--000--000----------|
          ---    - -  - -    ---  ---  ---

Gtr 1                                                 
|-------------------------|--------------------------|| 
|-------------------------|--------------------------|| 
|-------------------------|--------------------------|| 
|-------------------------|--------------------------|| 
|--------000----0-0--0-0--|--------------------------|| 
|--------000----0-0--0-0--|--/8---7---5--4---5---4---|| 
|        ---    - -  - -                               
|Gtr 2                                                 
|-------------------------|--------------------------|| 
|-------------------------|--------------------------|| 
|-------------------------|--------------------------|| 
|-------------------------|--------------------------|| 
|--000---000----0-0--0-0--|--------------------------|| 
|--000---000----0-0--0-0--|--/8---7---5--4---5---4---|| 
   ---   ---    - -  - -


Repeat Verse 2


 Outro (03:01)
 Gtr 1 & 2
||-----------------------------|-----------------------|----------||
||-----------------------------|-----------------------|----------||
||-----------------------------|-----------------------|----------||
||-----------------------------|-----------------------|--0-------||
||--0-0-0--0--0-0-0--0--0-0-0--|-0--0-0-0-0-0-0--------|--0-------||
||--1-1-1--1--1-1-1--1--1-1-1--|-1--1-1-1-1-1-1-1b-----|--0-------||
    - - -  -  - - -  -  - - -    -  - - - - - -


-  Palm Mute
h  Hammer on
p  Pull off
/  Slide Up
\  Slide Down
b  Bend
*  Harmonics





Comments


Popular Miss May I tabs & chords
A Dance With Aera Cura Bass Tabs
Relentless Chaos Bass Tabs
Ballad Of A Broken Man Tabs
Colossal 1 Tabs
Day By Day Tabs
Forgive And Forget 4 Tabs
Masses Of A Dying Breed 1 Tabs
Relentless Chaos Tabs
Relentless Chaos 2 Tabs
Unfortunate Engagement Tabs


Song lyrics



↑ Back to top | Tablatures and chords are parodies/interpretations of the original songs. You may use it for private study, scholarship, research or language learning purposes only
© 2014 AZChords.com Contact us | Privacy policy | DMCA | Add/correct tabs | Request tabs | Top 50 tabs