» » »

You Got To Walk That Lonesome Valley Tabs (ver.1)

Artists:  A B C D E F G H I J K L M N O P Q R S T U V W X Y Z # 

You Got To Walk That Lonesome Valley Tabs (ver.1)

Mississippi John Hurt
Rating:
5/5 (2 votes)

Hard to play? Try these video lessons and learn fast.
                ----------------------------------------------------------------------------
----------------------------------------------------------------------------

Tuning: Standard (Capo 1st Fret)


This riff is played throughout the entire song.

e|-------0----|-3---------------3-----0-----0------------------------------|
B|----3-------|--------------------------3-----3-----3------3-------3------|
G|----------0-|------0-----0-----------------------------0---------------0-|
D|-------0----|----0---------2-----0-----0-----0-------2-------0-------2---|
A|------------|------------------------------------------------------------|
E|-3----------|-3-------3-------3-----3-----3-----3---------3-----3--------|
                                                

e|--5----------5-----5----------3----7---------7----7---------5---|
B|--------3---------------3---------------5--------------5--------|
G|----------------------------------------------------------------|
D|------0--------0------0---------0-----0--------0-----0--------0-|
A|----------------------------------------------------------------|
E|--5-------5--------5-------3-------7------7-------7-------5-----|


e|-3---------------3-----0-----0------------------------------|
B|--------------------------3-----3-----3------3-------3------|
G|------0-----0-----------------------------0---------------0-|
D|----0---------2-----0-----0-----0-------2-------0-------2---|
A|------------------------------------------------------------|
E|-3-------3-------3-----3-----3-----3---------3-----3--------|



e|-7---------7--5----------7-----3---------------3-|
B|------5------------------------------------------|
G|-------------------0----------------0-----0------|
D|----0------------0---------0------0---------2----|
A|-------------------------------------------------|
E|-7------7-----5-------7-------3--------3-------3-|


| /  slide up
| \  slide down
| h  hammer-on
| p  pull-off
| ~  vibrato
| +  harmonic
| x  Mute note
===========================================================================
            
Hard to play? Try these video lessons and learn fast. | Correct




comments powered by Disqus
↑ Back to top | Tablatures and chords are parodies/interpretations of the original songs. You may use it for private study, scholarship, research or language learning purposes only