» » »

Tv Casualty Tabs (ver.1)

Artists:  A B C D E F G H I J K L M N O P Q R S T U V W X Y Z # 

Tv Casualty Tabs (ver.1)

Misfits
Rating:
0/5 (0 votes)

Hard to play? Try these video lessons and learn fast.
                This is the same thing as the other Tv Casualty, but with more ease by playing it all in the same spot


Intro
E-----------------------------------------------------------------------
B-----------------------------------------------------------------------
G-----------------------------------------------------------------------
D--2-2-3-2-2-2-3--------------------------------------------------------
A--0-0-0-0-0-0-0--------------------------------------------------------
E-----------------------------------------------------------------------
You get the ***ING picture b**ch ass, aight. aight, aight, aight, aight, aight, aight, aight

Chorus and stuff

E------------------------------------------------------------------------
B------------------------------------------------------------------------
G------------------------------------------------------------------------
D-4-4-3-3-3-4-4-4--------------------------------------------------------
A-2-2-1-1-1-2-2-2--------------------------------------------------------
E------------------------------------------------------------------------


When I do believe its Only on backup and hes all like, "yo i be the man" or whatever or "we're alright" you go back to playing the intro for a second, and then go back to the chorus, its totally b**chin
            
Hard to play? Try these video lessons and learn fast. | Correct




comments powered by Disqus
↑ Back to top | Tablatures and chords are parodies/interpretations of the original songs. You may use it for private study, scholarship, research or language learning purposes only