>
 >
Some Kinda Hate 3

Some Kinda Hate 3 Bass Tabs

Misfits - Some Kinda Hate 3 chords, tabs, tablatures, lyrics

Guitar lessons | Add/correct | Request | Top 50 tabs Artists:  A B C D E F G H I J K L M N O P Q R S T U V W X Y Z 0-9

Some Kinda Hate 3 Bass Tabs – Misfits

CD, Sheet music, Poster

Do you like Some Kinda Hate 3? Share with your friends now
Bass TabsBass Tabs v2Bass Tabs v3ChordsTabsTabs v2Tabs v3Tabs v4Tabs v5Ukulele
-----------------------------------------------------------------------------
			Some Kinda Hate - The Misfits
-----------------------------------------------------------------------------
Tuning: Standard

Verse
G|---------------------------------------|
D|---------------------------------------|
A|-3--3-3--3-3--3-3-2-0--0-0--0-0--0-0-2-|
E|---------------------------------------|

Chorus x3
G|------------------|
D|-3333333355555555-|
A|------------------|
E|------------------|

On the 4th time
G|----------|
D|-3~----5~-|
A|----------|
E|----------|

Bridge
G|--------------------|
D|--------------------|
A|---------1344444444-|
E|-44444444-----------|

Ending
G|----------------|
D|-3~----5~-------|
A|-------------3~-|
E|----------------|

This'll get real boring unless you mess around with it.



...


Or if you have a Devilock

Thanks to arrell for calling the fill in the bridge to my attention.





Comments


Popular Misfits tabs & chords
Kong Unleashed Bass Tabs
Runaway 2 Bass Tabs
Scarecrow Man Bass Tabs
She 3 Bass Tabs
Who Killed Marilyn? Bass Tabs
I Got A Right Chords
138 Tabs
Hate The Living Love The Dead 1 Tabs
We Are 138 5 Tabs
X Games Theme Tabs


Song lyrics



↑ Back to top | Tablatures and chords are parodies/interpretations of the original songs. You may use it for private study, scholarship, research or language learning purposes only
© 2014 AZChords.com Contact us | Privacy policy | DMCA | Add/correct tabs | Request tabs | Top 50 tabs