» » »

Nike A Go Go Tabs (ver.1)

Artists:  A B C D E F G H I J K L M N O P Q R S T U V W X Y Z # 

Nike A Go Go Tabs (ver.1)

Misfits
Rating:
0/5 (0 votes)

Hard to play? Try these video lessons and learn fast.
                Here's my version of this song

intro:
e|---------------------------------------------------|
B|---------------------------------------------------|all palm muted
G|---------------------------------------------------|
D|---------------------------------------------------|
A|---------------------------------------------------|
E|--33333-666666-111111--------8-7-6-5---------------|

e|--------------------|
B|--------------------|
G|--------------------|
D|-5------------------|let the note ring out
A|-5------------------|X4
E|-3------------------|

e|--------------------------------------------------|
B|--------------------------------------------------|
G|--------------------------------------------------|
D|-55555--888888--333333---10-9-8-7-----------------|PLAY X4
A|-55555--888888--333333---10-9-8-7-----------------|
E|-33333--666666--111111----8-7-6-5-----------------|

e|--------------------|
B|--------------------|
G|--------------------|
D|-5------------------|let the note ring out
A|-5------------------|X4
E|-3------------------|

e|--------------------------------------------------|
B|--------------------------------------------------|
G|--------------------------------------------------|
D|-55555--888888--333333---10-9-8-7-----------------|PLAY X4
A|-55555--888888--333333---10-9-8-7-----------------|
E|-33333--666666--111111----8-7-6-5-----------------|

e|--------------------|
B|--------------------|
G|--------------------|
D|-5------------------|let the note ring out
A|-5------------------|X4
E|-3------------------|

e|-------------------------------------------------------|
B|-------------------------------------------------------|
G|-----------555555--------------------------------------|
D|-888888----555555------5-------------------------------|
A|-888888----333333------5-let ring out X4---------------|
E|-666666----------------3-------------------------------|

e|-------------------------------------------------------|
B|-------------------------------------------------------|
G|-555555----888888--------------------------------------|
D|-555555----888888------5-------------------------------|
A|-333333----666666------5-let ring out X4---------------|
E|-----------------------3-------------------------------|

e|-------------------------------------------------------|
B|-------------------------------------------------------|
G|-------------99999999----77777777----------------------|
D|-33333333----99999999----77777777----------------------|
A|-33333333----77777777----55555555----------------------|
E|-11111111----------------------------------------------|

or instead of playing         you can play
e|---------------------           e|---------------------|
B|---------------------           B|-1010101010101010----|
G|---------------------           G|-1010101010101010----|
D|-33333333-----------            D|--8-8-8-8-8-8-8-8----|
A|-33333333------------           A|---------------------|
E|-11111111------------           E|---------------------|
            
Hard to play? Try these video lessons and learn fast. | Correct




comments powered by Disqus
↑ Back to top | Tablatures and chords are parodies/interpretations of the original songs. You may use it for private study, scholarship, research or language learning purposes only