» » »

Hybird Moments Tabs (ver.1)

Artists:  A B C D E F G H I J K L M N O P Q R S T U V W X Y Z # 

Hybird Moments Tabs (ver.1)

Misfits
Rating:
0/5 (0 votes)

Tabs too difficult? Try these video lessons and learn fast.
                
MISFITS HYBIRD MOMENTS
I'm sure the verse but the chorus is a littel off but not much.

Verse
e-----------------------------------------------------------------I
b-----------------------------------------------------------------I
g----------------------------------------------------------------.I
d-7-7-7-7-7-7-7--4-4-4-4-4-4-4------------8-8-8-8--7-7-7-7-7-7-7-.I
a-5-5-5-5-5-5-5--2-2-2-2-2-2-2---5-5-5-5--6-6-6-6--5-5-5-5-5-5-5--I
e--------------------------------3-3-3-3--------------------------I

Chours
e---------------------------------------------------------------I
b---------------------------------------------------------------I
g---------------------------------------------------------------I
d-7-7-7-7--4-4-4-4--------------------8-8-8-8-------------------I
a-5-5-5-5--2-2-2-2--5-5-5-5--7-7-7-7--6-6-6-6--5-5-5-5--7-7-7-7-I
e-------------------3-3-3-3--5-5-5-5-----------3-3-3-3--5-5-5-5-I


Verse
e-----------------------------------------------------------------I
b-----------------------------------------------------------------I
g----------------------------------------------------------------.I
d-7-7-7-7-7-7-7--4-4-4-4-4-4-4------------8-8-8-8--7-7-7-7-7-7-7-.I
a-5-5-5-5-5-5-5--2-2-2-2-2-2-2---5-5-5-5--6-6-6-6--5-5-5-5-5-5-5--I
e--------------------------------3-3-3-3--------------------------I

Chours
e---------------------------------------------------------------I
b---------------------------------------------------------------I
g---------------------------------------------------------------I
d-7-7-7-7--4-4-4-4--------------------8-8-8-8-------------------I
a-5-5-5-5--2-2-2-2--5-5-5-5--7-7-7-7--6-6-6-6--5-5-5-5--7-7-7-7-I
e-------------------3-3-3-3--5-5-5-5-----------3-3-3-3--5-5-5-5-I

Verse
e-----------------------------------------------------------------I
b-----------------------------------------------------------------I
g----------------------------------------------------------------.I
d-7-7-7-7-7-7-7--4-4-4-4-4-4-4------------8-8-8-8--7-7-7-7-7-7-7-.I
a-5-5-5-5-5-5-5--2-2-2-2-2-2-2---5-5-5-5--6-6-6-6--5-5-5-5-5-5-5--I
e--------------------------------3-3-3-3--------------------------I

Outro
e-------------------------------------------------------I
b-------------------------------------------------------I
g-------------------------------------------------------I
d-7-7-7-7-7-7-7--4-4-4-4-4-4-4--------------------8---7-I
a-5-5-5-5-5-5-5--2-2-2-2-2-2-2--5-5-5-5--7-7-7-7--6---5-I
e-------------------------------3-3-3-3--5-5-5-5--------I

d--.I= repeat
a--.I
            
Tabs too difficult? Try these video lessons and learn fast.




comments powered by Disqus
↑ Back to top | Tablatures and chords are parodies/interpretations of the original songs. You may use it for private study, scholarship, research or language learning purposes only