» » »

Misfits, Helana Tabs (ver.1)

Artists:  A B C D E F G H I J K L M N O P Q R S T U V W X Y Z # 

Helana Tabs (ver.1)

Misfits Tabs
Rating:
0/5 (0 votes)
Helana lessons Tabs too difficult? Try these video lessons and learn fast
                


E|-----------------------------------------------------------
B|-----------------------------------------------------------
G|-----------------------------------------------------------
D|-------6-----9-----4---------6------9------4---------------------
A|-------6-----9-----4---------6------9------4---------------------
E|-------4-----7-----2---------4------7------2---------------------

E|-----------------------------------------------------------
B|-----------------------------------------------------------
G|-----------------------------------------------------------
D|------6------9------4-5-6---------------------------------------
A|------6------9------4-5-6---------------------------------------
E|------4------7------2-3-4---------------------------------------

E|-----------------------------------------------------------
B|-----------------------------------------------------------
G|----9--10--7-9--7--5--7--5--3----------------------------------------
D|----9--10--7-9--7--5--7--5--3--5--3------------------------------------
A|----7--8---5-7--5--3--5--3--1--5--3-----------------------------------
E|-------------------------------3--1--------------------------

E|-----------------------------------------------------------
B|-----------------------------------------------------------
G|-----------------------------------------------------------
D|-----------------------------------------------------------
A|-----------------------------------------------------------
E|-----------------------------------------------------------

E|-----------------------------------------------------------
B|-----------------------------------------------------------
G|-----------------------------------------------------------
D|-----------------------------------------------------------
A|-----------------------------------------------------------
E|-----------------------------------------------------------

Thanks for lookin at my tab enjoy!
            
Submit corrections

comments powered by Disqus
↑ Back to top | Misfits Tabs for Helana. Lyrics for acoustic guitar and electric guitar. Tablatures and chords are parodies/interpretations of the original songs. You may use it for private study, scholarship, research or language learning purposes only