» » »

Dig Up Her Bone Tabs (ver.9)

Artists:  A B C D E F G H I J K L M N O P Q R S T U V W X Y Z # 

Dig Up Her Bone Tabs (ver.9)

Misfits
Rating:
0/5 (0 votes)

Hard to play? Try these video lessons and learn fast.
                song-dig up her bones
band-misfits
album-american psyco
guitarist-dez cadena and paul caiafa


the other tabs on here are tunned up this tab is 100% right i garentee it!
intro

|-----------------------------------------------------------|
|-----------------------------------------------------------|
|-3-3-3-3--------------------3-1-3-1-3-1-3-1----------------|
|-3-3-3-3--4-4-4-4--6-6-6-6--3-1-3-1-3-1-3-1----------------|x2
|-1-1-1-1--4-4-4-4--6-6-6-6--1-1-1-1-1-1-1-1----------------|
|----------2-2-2-2--4-4-4-4---------------------------------|
                                         let last chord ring
|------------------------------------|---------------------------|
|------------------------------------|---------------------------|
|-3-3-3-3-----------6-6-6-6----------|-3-3-3-3-------------------|
|-3-3-3-3--4-4-4-4--6-6-6-6--6-6-6-6-|-3-3-3-3--4-4-4-4--6-------|
|-1-1-1-1--4-4-4-4--4-4-4-4--6-6-6-6-|-1-1-1-1--4-4-4-4--6-------|
|----------2-2-2-2-----------4-4-4-4-|----------2-2-2-2--4-------|

verse
|----------------------------------------------------------|
|----------------------------------------------------------|
|-3-x-x-x---------------------3-1-3-1-3-1-3-1--------------|
|-3-x-x-x---4-x-x-x--6-x-x-x--3-1-3-1-3-1-3-1--------------|x4
|-1-x-x-x---4-x-x-x--6-x-x-x--1-1-1-1-1-1-1-1--------------|
|-----------2-x-x-x--4-x-x-x-------------------------------|

pre chorus
and the door it opens...
|----------------------------------------|
|----------------------------------------|
|-------------------3-3-3-3-3-3-3-3------|
|-4-4-4-4--6-6-6-6--3-3-3-3-3-3-3-3------|x2
|-4-4-4-4--6-6-6-6--1-1-1-1-1-1-1-1------|
|-2-2-2-2--4-4-4-4-----------------------|

chorus
point me to the sky above ...
|---------------------------------------|
|---------------------------------------|
|-3-3-3-3-----------6-6-6-6-------------|x4
|-3-3-3-3--4-4-4-4--6-6-6-6--4-4-4-4----|
|-1-1-1-1--4-4-4-4--4-4-4-4--4-4-4-4----|
|----------2-2-2-2-----------2-2-2-2----|
            
Hard to play? Try these video lessons and learn fast. | Correct




comments powered by Disqus
↑ Back to top | Tablatures and chords are parodies/interpretations of the original songs. You may use it for private study, scholarship, research or language learning purposes only