» » »

Misfits, Devilock Tabs (ver.1)

Artists:  A B C D E F G H I J K L M N O P Q R S T U V W X Y Z # 

Devilock Tabs (ver.1)

Misfits Tabs
 Rating:
4/5 (4 votes)
Devilock lessons Tabs too difficult? Try these video lessons and learn fast
                The Misfits - Devilock
----------------------
This is how I play it... The Misfits don't do all the palm muting, and they don't hit that e powerchord as often on the main riff, but I think it sounds better this way :)

Main Riff:
e|---------------------------------------------------------|
B|---------------------------------------------------------|
G|-------------------------------------------------5-------|
D|-2-2-2-2-2-2-2-5-2-2-2-2-2-2-2-5-2-2-2-2-2-2-2-5-5---5---|
A|-2-2-2-2-2-2-2-5-2-2-2-2-2-2-2-5-2-2-2-2-2-2-2-5-3---5---|
E|-0-0-0-0-0-0-0-3-0-0-0-0-0-0-0-3-0-0-0-0-0-0-0-3-----3---|
   -----pm------   -----pm------   -----pm------

Chorus Riff:
e|-----------------------|
B|-----------------------|
G|-----------------5-5---|
D|-2-2-2-2-2-2-2-2-5-5-5-|
A|-2-2-2-2-2-2-2-2-3-3-5-|
E|-0-0-0-0-0-0-0-0-----3-|

Bridge Riff:
e|-----------------|
B|-----------------|
G|-----------------|
D|-2-2-2-2-2-2-2-2-|
A|-2-2-2-2-2-2-2-2-|
E|-0-0-0-0-0-0-0-0-|

The outro is mostly drums and feedback, and this riff:
e|-----------------|
B|-----------------|
G|-----------------|
D|-----------------|
A|-3-2-3-2-3-2-3-2-|
E|-----------------|
I don't know for sure how long that riff goes on, but it follows the same pattern for a while

This is my first tab. please rate it!
            
Submit corrections

comments powered by Disqus
↑ Back to top | Misfits Tabs for Devilock. Lyrics for acoustic guitar and electric guitar. Tablatures and chords are parodies/interpretations of the original songs. You may use it for private study, scholarship, research or language learning purposes only