» » »

Day Of The Dead Bass tabs (ver.1)

Artists:  A B C D E F G H I J K L M N O P Q R S T U V W X Y Z # 

Day Of The Dead Bass tabs (ver.1)

Misfits
Rating:
0/5 (0 votes)

Tabs too difficult? Try these video lessons and learn fast.
                hey heres my bass tab im sure this is right and just a heads up im workin' hard on
bringing you guys album bass tabs for american psycho and walk among us BUT anyways
play this song in the order its given
Tuning: Gb, Db, Ab, Eb. (just like all there songs)

Rif: 1
G-----------------------------------------|
D-----------------------------------------|
A----------5--787878787878----------------|
E-0--3--5-------------------7--5--3--2----|

(Rif: 1)

Rif: 2
G--------------------------|
D--------------------------|
A--------------------------|
E-0-5-0-5-0-5-0-2-0-2-0-2--|

(Rif: 2)

Rif: 3
G-----------------------------------------------------|
D-----------------------------------------------------|
A---------------------------------------------5(x8-7--|
E-5-5(x8)--2-2(x8)--5-5(x8)--2-2(x8)------------------|

(Rif: 2)
(Rif: 2)

Rif: 4
G--------------------------------------------|
D--------------------------------------------|
A-5(x8)-----------------5(x8)-7(x8)----------|
E------------5(x8)------------------7-5-3-2--|

(Rif: 2)
(Rif: 2)
(Rif: 4)

Rif: 5
G--------------------------------------|
D--------------------------------------|
A-------------------------5(x8)-7(x8)--|
E-0-5-0-5-0-5-0-2-0-2-0-2--------------|

(Rif: 5)
(Rif: 5)
(Rif: 5)

Rif: 6
G--------------------------|
D--------------------------|
A-5-5-5-5-7-7-7-7----------|
E--------------------------|


Rif: 7
G-----------------------------------------|
D-----------------------------------------|
A--------------------------7/6/5/4/3------|
E-3-3-3-3-5-5--5--5------------------0000-|

there you are just like almost every misfits song played on the A and E string with
alot of 2 3 and 5,s but they still rock
            
Tabs too difficult? Try these video lessons and learn fast.


comments powered by Disqus
↑ Back to top | Tablatures and chords are parodies/interpretations of the original songs. You may use it for private study, scholarship, research or language learning purposes only