» » »

Misfits, Day Of The Dead Tabs (ver.1)

Artists:  A B C D E F G H I J K L M N O P Q R S T U V W X Y Z # 

Day Of The Dead Tabs (ver.1)

Misfits Tabs
 Rating:
4/5 (4 votes)
Day Of The Dead lessons Tabs too difficult? Try these video lessons and learn fast
1
                Tuning: Standard


Palm Muting = .
Slide =   /
Let Ring = r
Bend = b

Intro          (trill)
E---------------------------------------
B---------------------------------------
G----------7----------------------------
D-2--5--7--7----------------9--7--5--4--
A-2--5--7--5--787878787878--9--7--5--4--
E-0--3--5-------------------7--5--3--2--
  .  .  .  .                .  .  .  .

Pre Chorus
E--------------------------
B--------------------------
G--------------------------
D---7---7---7---4---4---4--
A---7---7---7---4---4---4--
E-0-5-0-5-0-5-0-2-0-2-0-2--

Verse
E---------------------------------------------------------
B---------------------------------------------------------
G---------------------------------------------77777777-9--
D-7-7777777--4-4444444--7-7777777--4-4444444--77777777-9--
A-7-7777777--4-4444444--7-7777777--4-4444444--55555555-7--
E-5-5555555--2-2222222--5-5555555--2-2222222--------------
    .......    .......    .......    .......

Chorus
E--------------------------------------------------------------------------
B--------------------------------------------------------------------------
G-7-7-7-7-7-7-7-7-----------------7-7-7-7-7-7-7-7-9-9-9-9-9-9-9-9----------
D-7-7-7-7-7-7-7-7-7-7-7-7-7-7-7-7-7-7-7-7-7-7-7-7-9-9-9-9-9-9-9-9-9-7-5-4--
A-5-5-5-5-5-5-5-5-7-7-7-7-7-7-7-7-5-5-5-5-5-5-5-5-7-7-7-7-7-7-7-7-9-7-5-4--
E-----------------5-5-5-5-5-5-5-5---------------------------------7-5-3-2--
                                                                  . . . .
Pre Chorus 2
E---------------------------------------------
B---------------------------------------------
G--------------------------77777777-99999999--
D---7---7---7---4---4---4--77777777-99999999--
A---7---7---7---4---4---4--55555555-77777777--
E-0-5-0-5-0-5-0-2-0-2-0-2---------------------

Outro
E--------------------------
B--------------------------
G-7-7-7-7-9-9-9-9----------
D-7-7-7-7-9-9-9-9----------
A-5-5-5-5-7-7-7-7----------
E--------------------------
 [Break]

Break In
E-------------------------------------------------
B-------------------------------------------------
G-------------------------------------------------
D-5--5--5--5--7--7--7--7---------------------2222-
A-5--5--5--5--7--7--7--7---7-/-6-/-5-/-4-/-3-2222-
E-3--3--3--3--5--5--5--5---------------------0000-
                                             ....
Order:
Intro                2x
Pre Chorus           2x
Verse                1x
Pre Chorus           2x
Verse                1x
Pre Chorus           2x
Chorus               1x
Pre Chorus           2x
Chorus               1x
Pre Chorus 2         4x
Outro to break       2x
Break In
            
Submit corrections

comments powered by Disqus
↑ Back to top | Misfits Tabs for Day Of The Dead. Lyrics for acoustic guitar and electric guitar. 1 Tablatures and chords are parodies/interpretations of the original songs. You may use it for private study, scholarship, research or language learning purposes only