>
 >
Bullet

Bullet Guitar Tabs

Misfits - Bullet chords, tabs, tablatures, lyrics

Guitar lessons | Add/correct | Request | Top 50 tabs Artists:  A B C D E F G H I J K L M N O P Q R S T U V W X Y Z 0-9

Bullet Guitar Tabs – Misfits

CD, Sheet music, Poster

Do you like Bullet? Share with your friends now
Bass TabsBass Tabs v2Bass Tabs v3Bass Tabs v4Bass Tabs v5Bass Tabs v6Bass Tabs v7ChordsDrum TabsTabsTabs v2Ukulele


E  :------------------------|------------------------|
B  :------------------------|------------------------|
G  :------------------------|------------------------|
D  :12-12-12-12-12-12-12-12-|12-12-12-12-12-12-12-12-|
A  :12-12-12-12-12-12-12-12-|12-12-12-12-12-12-12-12-|
E  :10-10-10-10-10-10-10-10-|10-10-10-10-10-10-10-10-|

E  :----------------------|----------------------|
B  :----------------------|----------------------|
G  :-----------10---10-10-|----------------------|
D  :10---10-10-10---10-10-|12-12-12-12-----12-12-|
A  :10---10-10--8----8--8-|12-12-12-12-----12-12-|
E  :-8----8--8------------|10-10-10-10-----10-10-|

E  :------------------------|------------------------|
B  :------------------------|------------------------|
G  :------------------------|------------------------|
D  :12-12-12-12-12-12-12-12-|12-12-12-12-12-12-12-12-|
A  :12-12-12-12-12-12-12-12-|12-12-12-12-12-12-12-12-|
E  :10-10-10-10-10-10-10-10-|10-10-10-10-10-10-10-10-|

E  :----------------------|----------------------|
B  :----------------------|----------------------|
G  :-----------10---10-10-|----------------------|
D  :10---10-10-10---10-10-|12-12-12-12-----12-12-|
A  :10---10-10--8----8--8-|12-12-12-12-----12-12-|
E  :-8----8--8------------|10-10-10-10-----10-10-|

E  :------------------------|------------------------|
B  :------------------------|------------------------|
G  :------------------------|------------------------|
D  :12-12-12-12-12-12-12-12-|12-12-12-12-12-12-12-12-|
A  :12-12-12-12-12-12-12-12-|12-12-12-12-12-12-12-12-|
E  :10-10-10-10-10-10-10-10-|10-10-10-10-10-10-10-10-|

E  :----------------------|----------------------|
B  :----------------------|----------------------|
G  :-----------10---10-10-|----------------------|
D  :10---10-10-10---10-10-|12-12-12-12-----12-12-|
A  :10---10-10--8----8--8-|12-12-12-12-----12-12-|
E  :-8----8--8------------|10-10-10-10-----10-10-|

E  :------------------------|------------------------|
B  :------------------------|------------------------|
G  :------------------------|------------------------|
D  :12-12-12-12-12-12-12-12-|12-12-12-12-12-12-12-12-|
A  :12-12-12-12-12-12-12-12-|12-12-12-12-12-12-12-12-|
E  :10-10-10-10-10-10-10-10-|10-10-10-10-10-10-10-10-|

E  :------------------------|------------------------|----------------|
B  :------------------------|------------------------|----------------|
G  :------------------------|------------------------|----------------|
D  :10-10-10-10-10-10-10-10-|10-10-10-10-10-10-10-10-|8-8-8-8-8-8-8-8-|
A  :10-10-10-10-10-10-10-10-|10-10-10-10-10-10-10-10-|8-8-8-8-8-8-8-8-|
E  :-8--8--8--8--8--8--8--8-|-8--8--8--8--8--8--8--8-|6-6-6-6-6-6-6-6-|

E  :------------------------|------------------------|
B  :------------------------|------------------------|
G  :------------------------|------------------------|
D  :10-10-10-10-10-10-10-10-|12-12-12-12-12-12-12-12-|
A  :10-10-10-10-10-10-10-10-|12-12-12-12-12-12-12-12-|
E  :-8--8--8--8--8--8--8--8-|10-10-10-10-10-10-10-10-|

E  :------------------------|------------------------|
B  :------------------------|------------------------|
G  :------------------------|------------------------|
D  :12-12-12-12-12-12-12-12-|12-12-12-12-12-12-12-12-|
A  :12-12-12-12-12-12-12-12-|12-12-12-12-12-12-12-12-|
E  :10-10-10-10-10-10-10-10-|10-10-10-10-10-10-10-10-|

E  :------------------------|----------------------|
B  :------------------------|----------------------|
G  :------------------------|-----------10---10-10-|
D  :12-12-12-12-12-12-12-12-|10---10-10-10---10-10-|
A  :12-12-12-12-12-12-12-12-|10---10-10--8----8--8-|
E  :10-10-10-10-10-10-10-10-|-8----8--8------------|

E  :----------------------|------------------------|
B  :----------------------|------------------------|
G  :----------------------|------------------------|
D  :12-12-12-12-----12-12-|12-12-12-12-12-12-12-12-|
A  :12-12-12-12-----12-12-|12-12-12-12-12-12-12-12-|
E  :10-10-10-10-----10-10-|10-10-10-10-10-10-10-10-|

E  :------------------------|----------------------|
B  :------------------------|----------------------|
G  :------------------------|-----------10---10-10-|
D  :12-12-12-12-12-12-12-12-|10---10-10-10---10-10-|
A  :12-12-12-12-12-12-12-12-|10---10-10--8----8--8-|
E  :10-10-10-10-10-10-10-10-|-8----8--8------------|

E  :----------------------|------------------------|
B  :----------------------|------------------------|
G  :----------------------|------------------------|
D  :12-12-12-12-----12-12-|12-12-12-12-12-12-12-12-|
A  :12-12-12-12-----12-12-|12-12-12-12-12-12-12-12-|
E  :10-10-10-10-----10-10-|10-10-10-10-10-10-10-10-|

E  :------------------------|------------------------|
B  :------------------------|------------------------|
G  :------------------------|------------------------|
D  :12-12-12-12-12-12-12-12-|10-10-10-10-10-10-10-10-|
A  :12-12-12-12-12-12-12-12-|10-10-10-10-10-10-10-10-|
E  :10-10-10-10-10-10-10-10-|-8--8--8--8--8--8--8--8-|

E  :------------------------|----------------|------------------------|
B  :------------------------|----------------|------------------------|
G  :------------------------|----------------|------------------------|
D  :10-10-10-10-10-10-10-10-|8-8-8-8-8-8-8-8-|10-10-10-10-10-10-10-10-|
A  :10-10-10-10-10-10-10-10-|8-8-8-8-8-8-8-8-|10-10-10-10-10-10-10-10-|
E  :-8--8--8--8--8--8--8--8-|6-6-6-6-6-6-6-6-|-8--8--8--8--8--8--8--8-|

E  :------------------------|------------------------|
B  :------------------------|------------------------|
G  :------------------------|------------------------|
D  :12-12-12-12-12-12-12-12-|12-12-12-12-12-12-12-12-|
A  :12-12-12-12-12-12-12-12-|12-12-12-12-12-12-12-12-|
E  :10-10-10-10-10-10-10-10-|10-10-10-10-10-10-10-10-|

E  :|*------------------------|------------------------*7|
B  :|*------------------------|------------------------*||
G  :| 12-12-12-12-12-12-12-12-|------------------------ ||
D  :| 12-12-12-12-12-12-12-12-|12-12-12-12-12-12-12-12- ||
A  :| 10-10-10-10-10-10-10-10-|12-12-12-12-12-12-12-12- ||
E  :| ------------------------|10-10-10-10-10-10-10-10- ||

E  :------------------------|------------------------*4|
B  :------------------------|------------------------*||
G  :12-12-12-12-12-12-12-12-|------------------------ ||
D  :12-12-12-12-12-12-12-12-|12-12-12-12-12-12-12-12- ||
A  :10-10-10-10-10-10-10-10-|12-12-12-12-12-12-12-12- ||
E  :------------------------|10-10-10-10-10-10-10-10- ||

E  :------------------------|
B  :------------------------|
G  :12-12-12-12-12-12-12-12-|
D  :12-12-12-12-12-12-12-12-|
A  :10-10-10-10-10-10-10-10-|
E  :------------------------|

E  :------------------------|*------------------------|
B  :------------------------|*------------------------|
G  :------------------------| 12-12-12-12-12-12-12-12-|
D  :12-12-12-12-12-12-12-12-| 12-12-12-12-12-12-12-12-|
A  :12-12-12-12-12-12-12-12-| 10-10-10-10-10-10-10-10-|
E  :10-10-10-10-10-10-10-10-| ------------------------|

E  :------------------------*2|----------------------|
B  :------------------------*||----------------------|
G  :------------------------ ||-----------10---10-10-|
D  :12-12-12-12-12-12-12-12- ||10---10-10-10---10-10-|
A  :12-12-12-12-12-12-12-12- ||10---10-10--8----8--8-|
E  :10-10-10-10-10-10-10-10- ||-8----8--8------------|

E  :----------------------|----------------------|
B  :----------------------|----------------------|
G  :----------------------|-----------10---10-10-|
D  :12-12-12-12-----12-12-|10---10-10-10---10-10-|
A  :12-12-12-12-----12-12-|10---10-10--8----8--8-|
E  :10-10-10-10-----10-10-|-8----8--8------------|

E  :--------------------------------------------|
B  :--------------------------------------------|
G  :---------------------------------10---10-10-|
D  :12-12-12-12-----12-12-10---10-10-10---10-10-|
A  :12-12-12-12-----12-12-10---10-10--8----8--8-|
E  :10-10-10-10-----10-10--8----8--8------------|

E  :------------------------------------|
B  :------------------------------------|
G  :------------------------------------|
D  :12-12-12-12-*-----------------------|
A  :12-12-12-12-*-----------------------|
E  :10-10-10-10-*-----------------------|





Comments


Popular Misfits tabs & chords
Astro Zombie 1 Bass Tabs
Pumpkin Head Bass Tabs
Return Of The Fly 3 Bass Tabs
Earth A.d. Drum Tabs
Dead Kings Rise 2 Tabs
Helena 1 Tabs
I Turned Into A Martian 1 Tabs
Lost In Space Tabs
X Games Theme Tabs
I Turned Into A Martian Ukulele


Song lyrics



↑ Back to top | Tablatures and chords are parodies/interpretations of the original songs. You may use it for private study, scholarship, research or language learning purposes only
© 2014 AZChords.com Contact us | Privacy policy | DMCA | Add/correct tabs | Request tabs | Top 50 tabs