» » »

Astro Zombies Bass tabs (ver.4)

Artists:  A B C D E F G H I J K L M N O P Q R S T U V W X Y Z # 

Astro Zombies Bass tabs (ver.4)

Misfits
Rating:
0/5 (0 votes)

Hard to play? Try these video lessons and learn fast.
                Misfits
"Astrozombies"

Part 1 

G-------------------------------
D-------------------------------
A---3-3/2-22-2/-----------------  x2
E--------------5-5/3-33311113333

Part 2 

G-------------44--------------------
D---------------4433----------------
A---3333333333----------------------  x2
E-------------------1111111133333333

Part 3 

G------------------------------------------------------------------
D------------------------------------------------------------------
A--333333333333333300000000000000007777777777777777---------------- x2
E--------------------------------------------------1111111133333333


Part 4 
G------------------------------------------------------------------
D------------------------------------------------------------------
A--33333333333333330000000000000000555555555555555----------------- x2
E-------------------------------------------------3333333333333333


Part 2  x2

Part 3  x2

Part 4  x2

Part 2  x4

Part 1  x1

Part 5

G-------------------------------------------------
D-------------------------------------------------
A---3-3/2-22-2/----------------------------------3   x1  
E--------------5-5/3-333-1-1-1-1-1-1-3-3-3-3-3-3--
            
Hard to play? Try these video lessons and learn fast. | Correct




comments powered by Disqus
↑ Back to top | Tablatures and chords are parodies/interpretations of the original songs. You may use it for private study, scholarship, research or language learning purposes only