» » »

Astro Zombies Tabs (ver.1)

Artists:  A B C D E F G H I J K L M N O P Q R S T U V W X Y Z # 

Astro Zombies Tabs (ver.1)

Misfits
Rating:
4/5 (5 votes)

Hard to play? Try these video lessons and learn fast.
                
....-Palm mute
/-slide


Intro X2

E------------|------------|-----------|-----------|
B------------|------------|-----------|-----------|
G-55--4-444--|-22---------|-----------|-----------|
D-55--4-444--|-22--5-555--|-3-333333--|-5-555555--|
A-33--2-222--|-00--5-555--|-3-333333--|-5-555555--|
E------------|-----3-333--|-1-111111--|-3-333333--|


Preverse X2

E-----------|-------------|-----------|-----------|
B-----------|-------------|-----------|-----------|
G-5-555555--|-5/10---10/--|-----------|-----------|
D-5-555555--|-5/10---10/--|-3-333333--|-5-555555--|
A-3-333333--|-3/-8----8/--|-3-333333--|-5-555555--|
E-----------|-------------|-1-111111--|-3-333333--|


Verse X2

E-----------|-----------|-----------|-----------|
B-----------|-----------|-----------|-----------|
G-5-555-55--|-5-555-55--|-2-222-22--|-2-222-22--|
D-5-555-55--|-5-555-55--|-2-222-22--|-2-222-22--|
A-3-333-33--|-3-333-33--|-0-000-00--|-0-000-00--|
E-----------|-----------|-----------|-----------|

E-----------|-----------|-----------|-----------|
B-----------|-----------|-----------|-----------|
G-----------|-----------|-----------|-----------|
D-2-222-22--|-2-222-22--|-3-333-33--|-5-555-55--|
A-2-222-22--|-2-222-22--|-3-333-33--|-5-555-55--|
E-0-000-00--|-0-000-00--|-1-111-11--|-3-333-33--|


Chorus X2

E-----------|-----------|-----------|-----------|
B-----------|-----------|-----------|-----------|
G-5-555-55--|-5-555-55--|-2-222-22--|-2-222-22--|
D-5-555-55--|-5-555-55--|-2-222-22--|-2-222-22--|
A-3-333-33--|-3-333-33--|-0-000-00--|-0-000-00--|
E-----------|-----------|-----------|-----------|

E-----------|-----------|-----------|-----------|
B-----------|-----------|-----------|-----------|
G-7-777-77--|-7-777-77--|-----------|-----------|
D-7-777-77--|-7-777-77--|-5-555-55--|-5-555-55--|
A-5-555-55--|-5-555-55--|-5-555-55--|-5-555-55--|
E-----------|-----------|-3-333-33--|-3-333-33--|



Preverse X2

E-----------|-------------|-----------|-----------|
B-----------|-------------|-----------|-----------|
G-5-555555--|-5/10---10/--|-----------|-----------|
D-5-555555--|-5/10---10/--|-3-333333--|-5-555555--|
A-3-333333--|-3/-8----8/--|-3-333333--|-5-555555--|
E-----------|-------------|-1-111111--|-3-333333--|


Verse X2

E-----------|-----------|-----------|-----------|
B-----------|-----------|-----------|-----------|
G-5-555-55--|-5-555-55--|-2-222-22--|-2-222-22--|
D-5-555-55--|-5-555-55--|-2-222-22--|-2-222-22--|
A-3-333-33--|-3-333-33--|-0-000-00--|-0-000-00--|
E-----------|-----------|-----------|-----------|

E-----------|-----------|-----------|-----------|
B-----------|-----------|-----------|-----------|
G-----------|-----------|-----------|-----------|
D-2-222-22--|-2-222-22--|-3-333-33--|-5-555-55--|
A-2-222-22--|-2-222-22--|-3-333-33--|-5-555-55--|
E-0-000-00--|-0-000-00--|-1-111-11--|-3-333-33--|


Chorus X2

E-----------|-----------|-----------|-----------|
B-----------|-----------|-----------|-----------|
G-5-555-55--|-5-555-55--|-2-222-22--|-2-222-22--|
D-5-555-55--|-5-555-55--|-2-222-22--|-2-222-22--|
A-3-333-33--|-3-333-33--|-0-000-00--|-0-000-00--|
E-----------|-----------|-----------|-----------|

E-----------|-----------|-----------|-----------|
B-----------|-----------|-----------|-----------|
G-7-777-77--|-7-777-77--|-----------|-----------|
D-7-777-77--|-7-777-77--|-5-555-55--|-5-555-55--|
A-5-555-55--|-5-555-55--|-5-555-55--|-5-555-55--|
E-----------|-----------|-3-333-33--|-3-333-33--|


Bridge X4

E-----------|-------------|-----------|-----------|
B-----------|-------------|-----------|-----------|
G-5-555555--|-5/10---10/--|-----------|-----------|
D-5-555555--|-5/10---10/--|-3-333333--|-5-555555--|
A-3-333333--|-3/-8----8/--|-3-333333--|-5-555555--|
E-----------|-------------|-1-111111--|-3-333333--|


Outro

E------------|------------|-----------|-----------|
B------------|------------|-----------|-----------|
G-55--4-444--|-22---------|-----------|-----------|
D-55--4-444--|-22--5-555--|-3-333333--|-5-555555--|
A-33--2-222--|-00--5-555--|-3-333333--|-5-555555--|
E------------|-----3-333--|-1-111111--|-3-333333--|

                          There's a time change right here
                          it turns to 6/4, so all the
                          chords right here are quarter notes.
E------------|-----------|--------------|--------------|
B------------|-----------|--------------|--------------|
G-55--4-444--|-22--------|--------------|--------------|
D-55--4-444--|-22--5-555-|-3-3-3-3-3-3--|-5-5-5-5-5-5--|
A-33--2-222--|-00--5-555-|-3-3-3-3-3-3--|-5-5-5-5-5-5--|
E------------|-----3-333-|-1-1-1-1-1-1--|-3-3-3-3-3-3--|
                           . . . . . .    . . . . . .

Time goes back to 4/4 here, hold this last chord for eight beats.

E------------|
B------------|
G-5~~~-------|
D-5~~~-------|
A-3~~~-------|
E------------|
            
Hard to play? Try these video lessons and learn fast. | Correct




comments powered by Disqus
↑ Back to top | Tablatures and chords are parodies/interpretations of the original songs. You may use it for private study, scholarship, research or language learning purposes only