» » »

Misfits, American Phsyco Bass tabs (ver.1)

Artists:  A B C D E F G H I J K L M N O P Q R S T U V W X Y Z # 

American Phsyco Bass tabs (ver.1)

Misfits Tabs
 Rating:
4/5 (4 votes)
American Phsyco lessons Tabs too difficult? Try these video lessons and learn fast
1
                AMERICAN PSYCHO - Misfits


Intro:
F#--------------------------------|----------------------------------
C#--------------------------------|-----------------2-222222-555555--
G#-4-44444--------4-44444---------|-444444---------------------------
D#--------4-44444---------4-4-4-4-|---------444444-------------------

Verse: x6
F#-----------------------------------
C#-----------------------------------
G#-----------33333-------------------
D#-1111-4444-------4-3---------------

Chorus: x4
F#-------------------
C#-------------------
G#-5-55555-----------
D#---------3-33-5-55-

Chorus: x4
F#----------------------------------------
C#---------------------------5-55555------
G#-5-55555-----------5-55555--------------
D#---------3-33-5-55----------------------
            
Submit corrections

comments powered by Disqus
↑ Back to top | Misfits Bass for American Phsyco. Lyrics for acoustic guitar and electric guitar. 1 Tablatures and chords are parodies/interpretations of the original songs. You may use it for private study, scholarship, research or language learning purposes only