>
 >
Cromok - Another You

Cromok - Another You Guitar Tabs

Misc Your Songs - Cromok - Another You chords, tabs, tablatures, lyrics

Guitar lessons | Add/correct | Request | Top 50 tabs Artists:  A B C D E F G H I J K L M N O P Q R S T U V W X Y Z 0-9

Cromok - Another You Guitar Tabs – Misc Your Songs

CD, Sheet music, Poster

Do you like Cromok - Another You? Share with your friends now
Tabs
this is the good instrumental song I made up. I hope enjoy this song..



riff 1

--7-----------------------------|-------------------------0------
------0-------0-----------------|-----------------3--------------
----------0-----------0---------|-----0-------0-------0-------0--
--------------------------4-~-5-|---------2----------------------
------------------2-------------|-3------------------------------
--0-----------------------------|--------------------------------


------------------2-------2~320-|-0------------------------------
--3-------------------3---------|-----0---------------0-------0--
------2-------2-----------------|-------------------------0------
----------4---------------------|--------------------------------
--2-----------------------------|---------2----------------------
--------------------------------|-0-----------3---0--------------


--7-----------------------------|-------------------------0------
------0-------0-----------------|-----------------3--------------
----------0-----------0---------|-----0-------0-------0-------0--
--------------------------4-~-5-|---------2----------------------
------------------2-------------|-3------------------------------
--0-----------------------------|--------------------------------


------------------2-------2~320-|-7-----------5---3--------------
--3-------------------3---------|-----0---------------0-------0--
------2-------2-----------------|---------0---------------0------
----------4---------------2~320-|--------------------------------
--2-----------------------------|--------------------------------
--------------------------------|-0------------------------------



riff 2

-12----------10---8-------7-----|-8-----------7---5--------------
------0---------------0-------0-|-----5---------------8---7---5--
----------0---------------------|---------5-----------5---7---5--
--------------------------------|--------------------------------
--------------------------------|-0------------------------------
--0-----------------------------|--------------------------------


------------------2-------2~320-|-7-----------5---3--------------
----------------------0---------|-----0---------------0-------0--
------2-------2-----------------|---------0---------------0------
----------1---------------------|--------------------------------
--2-----------------------------|--------------------------------
--------------------------------|-0------------------------------


-12----------10---8-------7-----|-8-----------7---5--------------
------0---------------0-------0-|-----5---------------8---7---5--
----------0---------------------|---------5-----------5---7---5--
--------------------------------|--------------------------------
--------------------------------|-0------------------------------
--0-----------------------------|--------------------------------


------------------2-------2~320-|-0------------------------------
----------------------0---------|-----0---------------0-------0--
------2-------2-----------------|-------------------------0------
----------1---------------------|--------------------------------
--2-----------------------------|---------2----------------------
--------------------------------|-0-----------3---0--------------



riff 3

-15----------14--15------14---7-|-8-----------7---5--------------
------0---------------0---------|-----5---------------5-------5--
----------0---------------------|---------5---------------5------
--------------------------------|--------------------------------
--------------------------------|-0------------------------------
--0-----------------------------|--------------------------------


--5----------10--12------10---5-|-8-----------78757--------------
------7-------------------------|-----0---------------0-------0--
----------7----------11---------|---------0---------------0------
--0-----------------------------|--------------------------------
--------------------------------|--------------------------------
--------------------------------|-0------------------------------



riff 4

-----7---7---7---7---7---7---7--|-----8---8---8---8---8---8---8--
-----8---8---8---8---8---8---8--|----10--10--10--10--10--10--10--
--------------------------------|--------------------------------
--------------------------------|--------------------------------
--------------------------------|-0------------------------------
-0------------------------------|--------------------------------


----10--10--10--10--10--10--10--|12------10---8--10--------------
----10--10--10--10--10--10--10--|-----0---------------0-------0--
--------------------------------|-0-----------------------0------
-0------------------------------|--------------------------------
--------------------------------|--------------------------------
--------------------------------|--------------------------------



riff 5

--5-~-7-------------------------|-------------------------0------
----------0---------------------|-----------------3--------------
--------------0-------0---------|-----0-------0-------0-------0--
--------------------------4-~-5-|---------2----------------------
------------------2-------------|-3------------------------------
--0-----------------------------|--------------------------------


------------------2-------2~320-|-0------------------------------
--3-------------------3---------|-----0---------------0-------0--
------2-------2-----------------|-------------------------0------
----------4---------------------|--------------------------------
--2-----------------------------|---------2----------------------
--------------------------------|-0-----------3---0--------------


--7-----------------------------|-------------------------0------
------0-------0-----------------|-----------------3--------------
----------0-----------0---------|-----0-------0-------0-------0--
--------------------------4-~-5-|---------2----------------------
------------------2-------------|-3------------------------------
--0-----------------------------|--------------------------------


------------------2-------2~320-|-7-----------5---3--------------
--3-------------------3---------|-----0---------------0-------0--
------2-------2-----------------|---------0---------------0------
----------4---------------2~320-|--------------------------------
--2-----------------------------|--------------------------------
--------------------------------|-0------------------------------




riff 6

----------------7~10-----12-----|-8-----------7---5--------------
--------------8-------0-------0-|-----5---------------5-------5--
----------7---------------------|---------5---------------5------
------9-------------------------|--------------------------------
-10-----------------------------|-0------------------------------
--------------------------------|--------------------------------


-------------10--12------14-----|-7------------------------------
---------10-----------0-------0-|-----0------10---8---7----------
-----11-------------------------|---------0---------------9---7--
-12-----------------------------|--------------------------------
--------------------------------|--------------------------------
--------------------------------|-0------------------------------


--0---------8~10--8--7-7~12--10-|-8-----------7---5--------------
------0-------------------------|-----5---------------5----------
----------0---------------------|---------5----------------------
--------------------------------|--------------------------------
--------------------------------|-0-----------------------0---2--
--0-----------------------------|--------------------------------


------------------0-------------|-----------------2--------------
----------1-----------1-------1-|---------3-----------3-------3--
--------------0-----------0-----|-----2-------2-----------2------
------2-------------------------|-0------------------------------
--3-----------------------------|--------------------------------
--------------------------------|--------------------------------


----------------------0---------|-0------------------------------
------------------0-------0-----|-0------------------------------
--------------0---------------0-|-0------------------------------
----------2---------------------|-2------------------------------
------2-------------------------|-2------------------------------
--0-----------------------------|-0------------------------------




riff 7

-12----------10---8-------7-----|-8-----------7---5--------------
------0---------------0-------0-|-----5---------------8---7---5--
----------0---------------------|---------5-----------5---7---5--
--------------------------------|--------------------------------
--------------------------------|-0------------------------------
--0-----------------------------|--------------------------------


------------------2-------2~320-|-7-----------5---3--------------
----------------------0---------|-----0---------------0-------0--
------2-------2-----------------|---------0---------------0------
----------1---------------------|--------------------------------
--2-----------------------------|--------------------------------
--------------------------------|-0------------------------------


-12----------10---8-------7-----|-8-----------7---5--------------
------0---------------0-------0-|-----5---------------8---7---5--
----------0---------------------|---------5-----------5---7---5--
--------------------------------|--------------------------------
--------------------------------|-0------------------------------
--0-----------------------------|--------------------------------


------------------2-------------|-2------------------------------
----------------------0-------0-|-0-----------------------4-~-5--
------2-------2-----------2-----|-2------------------------------
----------1---------------------|-1------------------------------
--2-----------------------------|-2------------------------------
--------------------------------|--------------------------------

--0-----------------------------|-12-----------------------------
------0-------------------------|-12-----------------------------
--------------------------------|-12-----------------------------
--------------------------------|--------------------------------
----------2---------------------|--------------------------------
--0-----------3---0-------------|--------------------------------


this is very very verrrry good instrumental...work this at your string
and you will see the POWER!!!





Comments


Popular Misc Your Songs tabs & chords
Funky Rock Tune Bass Tabs
Adam Bryant - Is It You Chords
Rune Finne - Chill Chords
Again Tabs
Matias Espina - 10 Million Years Ago Tabs
On The Edge Tabs
Sucka - Rock All Out Tabs
Bartesch Sophie - Hurtin You Ukulele
Garyganoos - A Song Of Praise Ukulele
Ryan Casey - My Fallen Angel Ukulele


Song lyrics



↑ Back to top | Tablatures and chords are parodies/interpretations of the original songs. You may use it for private study, scholarship, research or language learning purposes only
© 2014 AZChords.com Contact us | Privacy policy | DMCA | Add/correct tabs | Request tabs | Top 50 tabs