» » »

Misc Traditional, Take Me Out To The Ball Game Tabs (ver.1)

Artists:  A B C D E F G H I J K L M N O P Q R S T U V W X Y Z # 

Take Me Out To The Ball Game Tabs (ver.1)

Misc Traditional Tabs
 Rating:
4/5 (4 votes)
Take Me Out To The Ball Game lessons Tabs too difficult? Try these video lessons and learn fast
1
                here's an easier way to play this classic song, this way is also a lot easier on the ears.


            "Take Me Out To The Ballgame" by Jack Norworth, written in 1908


|----------------------------|---------------------|
|----------------------------|---------------------|
|-----5--2-------------------|----5--2-------------|
|----------5--2--5~~~--------|----------5--2--5~~~-|
|--3-------------------5~~~~-|-3-------------------|
|----------------------------|---------------------|


|------------------------------|----------------------------|
|------------------------------|----------------------------|
|--2-----2----------2~~~-------|-2--0--2--4--5--7--5--4--2--|
|-----5------2-3-5-------2-----|----------------------------|
|---------------------------3--|----------------------------|
|------------------------------|----------------------------|


|-----|----------------------------|--------------------|
|-----|----------------------------|--------------------|
|-2-0-|-----5--2-------------------|------------0-2~~~~-|
|-----|-----------5--2--5~~~-------|---0--2--3----------|
|-----|--3--------------------5~~~-|-3------------------|
|-----|----------------------------|--------------------|


|-----------------------------|---------------------------|
|-----------------------------|---------------------------|
|--2-4--5~~~-5~~~-5~~~-4-2-0--|-0-0--2~~~~-4~~~~-5~~~~~~~-|
|-----------------------------|---------------------------|
|-----------------------------|---------------------------|
|-----------------------------|---------------------------|


yay! and there you go! from now on everytime youre at home you can play this along to 
whatever baseball game youre watching on the TV! MAKE JACK PROUD! 
give him some credit for composing a part of american history!


-Bertman (the Toast)
            
Submit corrections

comments powered by Disqus
↑ Back to top | Misc Traditional Tabs for Take Me Out To The Ball Game. Lyrics for acoustic guitar and electric guitar. 1 Tablatures and chords are parodies/interpretations of the original songs. You may use it for private study, scholarship, research or language learning purposes only