» » »

Misc Traditional, My Bonnie Tabs (ver.1)

Artists:  A B C D E F G H I J K L M N O P Q R S T U V W X Y Z # 

My Bonnie Tabs (ver.1)

Misc Traditional Tabs
 Rating:
4/5 (4 votes)
My Bonnie lessons Tabs too difficult? Try these video lessons and learn fast
                PROPS GO TO: Max Guitarplayer

* Traditional : My Bonnie (Trad.)
  -----------------------                                           3
                                                                    4

           C          F         C                                        G7
E |-----|----------|---------|---------|----------|----------|---------|------|
B |-----|----------|---------|---------|----------|----------|---------|------|
G |-----|--/9-7-5--|--7-5----|---------|----------|--/9-7-5--|--5-4-5--|--7~--|
D |--5--|----------|------7--|--5------|-------5--|----------|---------|------|
A |-----|----------|---------|-----7~--|--(7)-----|----------|---------|------|
E |-----|----------|---------|---------|----------|----------|---------|------|

                C          F         C                    F         G7
E |----------|----------|---------|---------|----------|---------|---------|
B |----------|----------|---------|---------|----------|---------|---------|
G |--(7)-----|--/9-7-5--|--7-5----|---------|----------|----7-5--|--4---4--|
D |-------5--|----------|------7--|--5------|-------5--|--7------|----7----|
A |----------|----------|---------|-----7~--|--(7)-----|---------|---------|
E |----------|----------|---------|---------|----------|---------|---------|

     C                           F     Dm        G7                  C
E |------|--------|-----|-----|-----|---------|---------|---------|---------|
B |------|--------|-----|-----|-----|---------|---------|---------|---------|
G |--5~--|--(5)---|-----|--5--|-----|--7---5--|--4-4-4--|--4---4--|--5---7--|
D |------|--------|--5--|-----|--7--|---------|---------|----7----|---------|
A |------|--------|-----|-----|-----|---------|---------|---------|---------|
E |------|--------|-----|-----|-----|---------|---------|---------|---------|

                          F      Dm        G7                  C
E |------|------|------|------|---------|---------|---------|--------||
B |--5---|------|------|------|---------|---------|---------|--------||
G |------|------|--5---|------|--7---5--|--4-4-4--|--4---4--|--5~----||
D |------|--5---|------|--7---|---------|---------|----7----|--------||
A |------|------|------|------|---------|---------|---------|--------||
E |------|------|------|------|---------|---------|---------|--------||



*******************************************************************************

                                           Keep rockin !


*******************************************************************************
            
Submit corrections

comments powered by Disqus
↑ Back to top | Misc Traditional Tabs for My Bonnie. Lyrics for acoustic guitar and electric guitar. Tablatures and chords are parodies/interpretations of the original songs. You may use it for private study, scholarship, research or language learning purposes only