» » »

Juan Habichuela - Falseta De Farruca Tabs (ver.1)

Artists:  A B C D E F G H I J K L M N O P Q R S T U V W X Y Z # 

Juan Habichuela - Falseta De Farruca Tabs (ver.1)

Misc Traditional
Rating:
0/5 (0 votes)

Tabs too difficult? Try these video lessons and learn fast.
                Falseta de Farruca
Juan Habichuela

A very pretty Flamenco piece I picked up in a class way back.

e|---------------0---0-1-3-1-0---0-------0-----0---0-0-5-4-3-2-1—3P1P0-------|
B|------0-1-0-1-3--4-----------4-------1---1-------1-------------------3-----|
G|2-1-2------------------------------2-------2-----2-------------------------|
D|---------------------------------2---------------2-------------------------|
A|-------------------------------0-------------0---0-------------------------|
E|---------------------------------------------------------------------------|

e|--------0---1---1-5-3-1H3P1-0---0-1-0-------0-5-3-2-1P0--------------------|
B|--1H3P1-0-----3---------------4-------1---1-------------3-1-0--------------|
G|--------1-------------------------------2---------------------2-1-2-4-2-1--|
D|--------3---0--------------------------------------------------------------|
A|--------2---------------------------0--------------------------------------|
E|---------------------------------------------------------------------------|

e|-------------------0-------------------------------------------------------|
B|-----------------1---1-----1-0-1-3-1--0--0--0---0-1-0---------0H1H3P1P0----|
G|---------------2-------2-----------------0----2-------2-----2--------------|
D|3-2-0--------2---------------------------3----------------3----------------|
A|------3-2-0--------------0---------------2--------------3------------------|
E|--------------------------------------3--3------------1--------------------|

e|------------0-----1----------0----------------------------------5-7-8------|
B|------------------------3---------1----3-----0----------------5------------|
G|--2P1P0-------------------------------------------1---------5--------------|
D|--------3------3-----0----2---------0---------------------7----------------|
A|-------------------------------3---------2------------0--------------------|
E|----------0-------------------------------------4--------------------------|
            
Tabs too difficult? Try these video lessons and learn fast.




comments powered by Disqus
↑ Back to top | Tablatures and chords are parodies/interpretations of the original songs. You may use it for private study, scholarship, research or language learning purposes only