>
 >
Pink Panther

Pink Panther Guitar Tabs

Misc Themes - Pink Panther chords, tabs, tablatures, lyrics

Guitar lessons | Add/correct | Request | Top 50 tabs Artists:  A B C D E F G H I J K L M N O P Q R S T U V W X Y Z 0-9

Pink Panther Guitar Tabs – Misc Themes

CD, Sheet music, Poster

Do you like Pink Panther? Share with your friends now
Tabs

I was taught this by my music teacher so I think its right.
Its my first tab so here goes

E ---------------------------------------------------------------------
B ---------------------------------------------------------------------
G --------------------------------5-4--------4/3-2p0---------------
D --------------4-5-------4-5------------5-------------2p0h2------
A--4-5-6-7---------6-7---------------7-----------------------------
E ---------------------------------------------------------------------

E ---------------------------------------------------------------------
B ---------------------------------------------------------------------
G --------------------------------5-44/9/8----8------------------
D --------------4-5-------4-5--------5-------------9----------------
A--4-5-6-7---------6-7-------------------------------10------------
E ----------------------------------------------------------11--------

E ---------------------------------------------------------------------
B ---------------------------------------------------------------------
G -----------------------------5-4--------4/3-2p0------------------
D ----------4-5-------4-5------------5-------------2p0h2---------
A---6-7---------6-7---------------7--------------------------------
E --------------------------------------------------------------------

E--2-----0----------------------------------------------------------------------------------------------------------
B--0-----0----------------------------------------------------------------------------------------------------------
G--2-----0---known as B7th-+-Em--9--7----------------------------------------------------------------------
D--1-----2--------------------------------------9p7/5-----------8/7------8/7------8/7-----8/7------------------
A--2-----2-------------------------------------------------7--------------------------------------------------------
E--0-----0----------------------------------------------------------------------------------------------------------

E---------------------------------------------------------------------------------------------------------------------
B---------------------------------------------------------------------------------------------------------------------
G--------------------------------------------------------------------------------------------------------------------
D--5-----------------------------------------------------------------------------------------------------------------
A------7p5h7--7-----7p5h7--7-----7p5h7--7-----B7th---------------------------------------------------------
E---------------------------------------------------------------------------------------------------------------------
hope u enjoy!





Comments


Popular Misc Themes tabs & chords
The Pink Panther Theme 1 Bass Tabs
Hyakugojuuichi Chords
Bbc Song Tabs
James Bond Theme Tabs
James Bond Theme 00 Tabs
Jaws Theme Song Tabs
Ravens Old Theme Tabs
Sanford And Son Tabs
Secret Agent Man Tabs
Star Trek The Next Generation Picard S Flute Theme Tabs


Song lyrics



↑ Back to top | Tablatures and chords are parodies/interpretations of the original songs. You may use it for private study, scholarship, research or language learning purposes only
© 2014 AZChords.com Contact us | Privacy policy | DMCA | Add/correct tabs | Request tabs | Top 50 tabs