» » »

Goodbye May Seem Forever Fox And The Hound Tabs (ver.1)

Artists:  A B C D E F G H I J K L M N O P Q R S T U V W X Y Z # 

Goodbye May Seem Forever Fox And The Hound Tabs (ver.1)

Misc Themes
Rating:
0/5 (0 votes)

Hard to play? Try these video lessons and learn fast.
                There is the tab I rework entirly.
I didn't rework the intro, because I don't know what is it and I can't hear it.
for the chords, it must be in the tunes of the melody, of course
search for it by yourself.


intro - D 

E-5----------3-----
B-6---6---3--3-----
G-5---5---3--------
D-----3------------
A------------------
E------------------

FLUTE part in the beginning (when Tweed sings)

E------------0---------|-------------------------
B--0-0-1-3-------------|-----0-1---1-1--0--------
G--------------2-------|-2-2---------------0-----
D----------------------|-------------------------
A----------------------|-------------------------
E----------------------|-------------------------
                         _____                     ______
                        /First                    /Second
E------------2-2--0-0--|-------------------------||---2-2--0-0-------------
B--0-0-3-3-------------|---1-1-0-------3-------o-||------------------------
G----------------------|---------2---0-----------||-------------0-0--2-2---
D----------------------|-------------------------||------------------------
A----------------------|-----------------------o-||------------------------
E----------------------|-------------------------||------------------------


PIANO part (still when Tweed sings)
     
     "goodbye may..        "farewell..
E-------3-----------------|-----3----3-5-3-------
B-0-1-3------3-1---0---0--|--1--------------3----
G--------------------2----|----------------------
D-------------------------|----------------------
A-------------------------|----------------------
E-------------------------|----------------------

   "but in my heart...    "and there..
E----------2---2-2--0--|-------------5--3--------
B--1--0-0--------------|-0-1--0-1----------------
G----------------------|-------------------------
D----------------------|-------------------------
A----------------------|-------------------------
E----------------------|-------------------------



HARMONICA part (after Tweed sang)

E------------0---------|------------------------
B--0-0-1-3-------------|-----0-1---1-1--0-------
G--------------2-------|-2-2---------------0----
D----------------------|------------------------
A----------------------|------------------------
E----------------------|------------------------
                         _____                  ______
                        /First                 /Second
E------------2-2--0-0--|----------------------||---2-2--0-0-------------
B--0-0-3-3-------------|---1-1-0-------3----o-||------------------------
G----------------------|---------2---0--------||-------------0-0--2-2---
D----------------------|----------------------||------------------------
A----------------------|--------------------o-||------------------------
E----------------------|----------------------||------------------------




CHORUS part 

   "goodbye may...      "farewell...    "but in my heart... "and there...

E-----2---2-0---0-5-3--|-0-5---3-5-3----|-------2--2-2--0--|------------5-3--
B---3------------------|-------------3--|-1-0-0------------|--0-1---0-1------
G----------------------|----------------|------------------|-----------------
D----------------------|----------------|------------------|-----------------
A----------------------|----------------|------------------|-----------------
E----------------------|----------------|------------------|-----------------


ENDING HARMONICA part

E----3-----------------|--3---3-5-3----|--------2---2-2--0--|-----------2-3---
B--0----3-1---0---0-1--|------------3--|--1-0-0-------------|--0-1--0-1-------
G---------------2------|---------------|--------------------|-----------------
D----------------------|---------------|--------------------|-----------------
A----------------------|---------------|--------------------|-----------------
E----------------------|---------------|--------------------|-----------------
            
Hard to play? Try these video lessons and learn fast. | Correct




comments powered by Disqus
↑ Back to top | Tablatures and chords are parodies/interpretations of the original songs. You may use it for private study, scholarship, research or language learning purposes only