» » »

Circus Music Tabs (ver.1)

Artists:  A B C D E F G H I J K L M N O P Q R S T U V W X Y Z # 

Circus Music Tabs (ver.1)

Misc Themes
Rating:
0/5 (0 votes)

Tabs too difficult? Try these video lessons and learn fast.
                Hehehehehe this song is a classic! 
hehehe 

------------------|----------------|--------------------|---------------------
------------------|----------------|--------------------|---------------------
-7-6--5654---3212-|-43--2321-------|--------------------|---------------------
------------------|-----------5434-|-7-44---4--7-44---4-|---------------------
------------------|----------------|------7---------7---|---------------------
------------------|----------------|--------------------|---------------------
 | |  ||||   ||||   ||  ||||  ||||   | || | |  | || |  |                      

--------------------------|---------------------------------------------------
--------------------------|---------------------------------------------------
----------------/2456--42-|---------------------------------------------------
---------/3456------------|---------------------------------------------------
--/4567-------------------|---------------------------------------------------
--------------------------|---------------------------------------------------
   ||||   ||||   ||||  ||
            
Tabs too difficult? Try these video lessons and learn fast.




comments powered by Disqus
↑ Back to top | Tablatures and chords are parodies/interpretations of the original songs. You may use it for private study, scholarship, research or language learning purposes only