» » »

The Sweeney Bass tabs (ver.1)

Artists:  A B C D E F G H I J K L M N O P Q R S T U V W X Y Z # 

The Sweeney Bass tabs (ver.1)

Misc Television
Rating:
0/5 (0 votes)

Hard to play? Try these video lessons and learn fast.
                (Theme)
-------------------------------------------------------------------------------
			     THE SWEENEY - Theme Tune
-------------------------------------------------------------------------------


Tuning: standard EADG

First shown on UK TV from 1975 to 1978

Written by Harry South

G|---------------------------------------------------------------------------|
D|---------------------------------------------------------------------------|
A|-6-6--6--6--5-5---5--5--4-4--4--4--3-3-2-1--6-6---6--6--5-5--5---5--4-4----|
E|----6--6--6-----5--5--5----4--4--4--------------6--6--6-----5--5--5-----4--|

G|---------------------------------------------------------------------------|
D|---------------------------------------------------8-8---8---8---7-7---7---|
A|-4--4--3-3-2-1-6-6---6--6---5-5--5---5--4-4-3-2--8------8---8---8-----7---7|
E|--4--4-------------6--6---6-----5--5--5------------------------------------|

G|---------------------------------------------------------------------------|
D|-7--6-6---6--6--5-5-4-3-8-8---8--8--7-7---7--7--6-6-5-3-5~-----6-4---------|
A|--7-----6--6--6-------------8--8--8-----7--7--7------------6-------6-------|
E|-------------------------------------------------------------6-------------|
            
Hard to play? Try these video lessons and learn fast. | Correct




comments powered by Disqus
↑ Back to top | Tablatures and chords are parodies/interpretations of the original songs. You may use it for private study, scholarship, research or language learning purposes only