» » »

Simpsons Tabs (ver.3)

Artists:  A B C D E F G H I J K L M N O P Q R S T U V W X Y Z # 

Simpsons Tabs (ver.3)

Misc Television
Rating:
0/5 (0 votes)

Hard to play? Try these video lessons and learn fast.
                (Theme)
(Complete)
PROPS GO TO: Rodrigo R. Marckezini "El Barto"

################################################
#  THE SIMPSONS THEME SONG (Time: -01:18-)     #
#  Written by: Danny Elfman & Alf Clausen      #
#  1/7/03 10:30pm - 4:30am                     #
#  1/8/03 4:30 pm - 6:51pm                     #
################################################

Hello everyone!
Ay Caramba! This is a Simpsons Theme song tab!!!!
and myself write its!!!

I hope you enjoy... really!
 
(Intro)
  

 (w/volume pedal)                                        
  ---~----|
B|---13vvvvvvb/---|--6---7---8vvvvb/--|-----~----|
G|----------------|--8---9--10vvvvb/--|-----~----|
D|----------------|-------------------|-----~----|
A|----------------|-------------------|--------------------------|
E|----------------|-------------------|--------------------------|
                   "The Simpsons..."                       -00:08-

Grt.2
                 
E|------------12/-|----------------------------------|
B|------------13/-|--------------------------|
G|----------------|--------------------------|
D|----------------|--------------------------|
A|----------------|--------------------------|
E|----------------|--------------------------------|
                             

 ~-----~-------|
B|----14--12--11---10--8---7---6---5---4---3|-~------~------|
G|------------------------------------------|-~-------~-----|
D|------------------------------------------|-~--------~----|
A|------------------------------------------|-~---------~---|
E|------------------------------------------|-~----------~--|
                                                            -01:11-

                                                         
E|---0-2-5-3-0------------|---------------------------------------|
B|-1----------1-----------|---------------------------------------|
G|--------------2-------0-|------2----1-1-1-1-3-4-6-6-6!----------|
D|----------------4-4-4---|--0-4----------------------------------|
A|------------------------|---------------------------------------|
E|------------------------|---------------------------------------|
                                                            -01:18-                  
           #  #  # #  #               
        #  ############   P.S: on the solo fo saxophone, improvise!              
      # ####HHHHHHHHHH#               
   #  ###HHHHHHHHHHHHH#               
   ####HHHHHHHHHHHHHHHH#              
####HHHHHHHHHHHHHHHHHHH#   remember of the solos of 
 ##HHHHHHHHHHHHHHHHHHHH#              Lisa on the episodes!!!!
 ##HHHHHHHHHHHHHHHHHHHHH##  
   #HHHHHHHHHHHHHHHHHHHH##            
   #HHHHHHHHHHHHHHHHHHHHHH#     use distorcion, chorus and delay....      
    ##HHHHHHHHHHHHHHHHH######         
    ##HHHHHHHHHHH######      #        
      #HHHHHHHH##      #      #       
      #HHHHHHH#         ## ## #       
       #HHH%HH#         ##    #       
       #HHHHHH#   #     ######        Bye! enjoy!!!!!
        #HH%HH#         ##HHHH#       
        #HHHHHH##      #HHHHHH#       
        ###HHHHHH######HHH####        
       #HHkHHHHHHHH#HHHHHHHHH#        
       #HkHkHHHHHHHHHHHHHHHHHH#       
        ###HHHHHHHHHHHHHHHHHHHH#      
         ##HHH###HHHHHHHHHHHHH##      
         ##H##MMM#############        
         ##H######MH##                
         ##HHH#####MHH#               
         ##HHHH########               
           #HHHHHHH#                  
            ########                  
                     Rodrigo R. Marckezini "El Barto" 
                                             Brasil 2003
            
Hard to play? Try these video lessons and learn fast. | Correct




comments powered by Disqus
↑ Back to top | Tablatures and chords are parodies/interpretations of the original songs. You may use it for private study, scholarship, research or language learning purposes only