» » »

Misc Television, The Office Tabs (ver.4)

Artists:  A B C D E F G H I J K L M N O P Q R S T U V W X Y Z # 

The Office Tabs (ver.4)

Misc Television Tabs
 Rating:
4/5 (4 votes)
The Office lessons Tabs too difficult? Try these video lessons and learn fast
                (Theme)
-------------------------------------------------------------------------------
                The Office Theme
-------------------------------------------------------------------------------


This is my 1st ever tab so be gentle with the reviews ;)

I watched a tutorial for playing this on piano and applied the notes
to the guitar. Hope it sounds alright =) 

Don't forget, comments are appreciated 



Main piano theme:

e|---------------------------------------------------------------------------|
B|--------3-----3-------3------3----3------3--------5----5-----5-------------|
G|--------4-----4-------4------4----4------4--------4----4-----4-------------|
D|-----------5-------------5------4------------4-------5---------------------|
A|---------------------------------------------------------------------------|
E|---------------------------------------------------------------------------|

e|---------0--0--------------------------------------------------------------|
B|---------1--1--1--0------0-------------------------------------------------|
G|------------------------2--------------------------------------------------|
D|---------------------------------------------------------------------------|
A|---------------------------------------------------------------------------|
E|---------------------------------------------------------------------------|

Accordion sounding thing. I've yet to mess around with a capo to get the right pitch.
In the theme it sounds much higher than this, but this is the basis to go by. 

e|---------------------------------------------------------------------------|
B|---------------------------------------------------------------------------|
G|----------0----------------------------------------------------------------|
D|-----------------4---5--4--0--2--------------------------------------------|
A|--------------------------------------3--3--3--2--0--2---------------------|
E|------3--------------------------------------------------------------------|

e|---------------------------------------------------------------------------|
B|---------------------------------------------------------------------------|
G|---------0-----------------------------------------------------------------|
D|--------------4--5--7--4--2-----0--2--0------------------------------------|
A|------------------------------------------------2--3--3---3--2--0--2-------|
E|-----3---------------------------------------------------------------------|


Bass:


e|---------------------------------------------------------------------------|
B|---------------------------------------------------------------------------|
G|---------------------------------------------------------------------------|
D|---------------------------------------------------------------------------|
A|-------------------2--2--2--2--------------------3----3--------------------|
E|----3--3--3--3------------------0--0--0--0---------------------------------|

Guitar, i'm not sure of the entrance chord but i think its the C power chord.
Its pretty much the bass but power chord style. 

e|---------------------------------------------------------------------------|
B|---------------------------------------------------------------------------|
G|----------------4--4--4--4----------------5--5--5--5-----------------------|
D|---5--5--5--5---4--4--4--4---2--2--2--2---5--5--5--5-----------------------|
A|---5--5--5--5---2--2--2--2---2--2--2--2---3--3--3--3-----------------------|
E|---3--3--3--3----------------0--0--0--0------------------------------------|

Piano fade out:
Its a G arpeggio(i'm pretty sure)

e|----------------------------------------3-----------------------------------|
B|---------------------------------------0------------------------------------|
G|--------------------------0-----0-------------------------------------------|
D|---------------0------0-----0-----------------------------------------------|
A|-----2----2------2----------------------------------------------------------|
E|--------3-------------------------------------------------------------------|
            
Submit corrections

comments powered by Disqus
↑ Back to top | Misc Television Tabs for The Office. Lyrics for acoustic guitar and electric guitar. Tablatures and chords are parodies/interpretations of the original songs. You may use it for private study, scholarship, research or language learning purposes only